Oops, an error
Loading. Please wait.

Si Pudieramos Vivir tab

version 1
version 1

Whole song

16 views 1 this week
no commentswrite comment
1 2 3 4 5
3 more votes to show rating
add to favorites
×
Save as Personal and add changes to this tab that will be seen only by you. Learn more ›
×
You can save this tab as Personal to edit and correct it or add notes. All changes will be seen only by you. Learn more »
launch autoscroll
font size
0
reset
how to read this tab
guitar tuner
edit
Autoscroll
slow
fast
+/-
esc
set tempo
stop
CON GUITARRA DISTORSIONADA A NIVEL MEDIO
ACORDES USADOS PARA AL CANCIÓN:
G5      |355XXX|
E5      |022XXX|
A5      |577XXX|
D5      |X577XX|
D       |XX0232|
Dus4    |XX0233|
G#5     |466XXX|


|SOLO 1RA ESTROFA CON SORDINA (PALM MUTING)|

G5
NO QUIERO ARMONIZAR NO QUIERO CONTEMPLAR
      E5
TE ESPERO A LA SALIDA DE ESTO 
 A5             D5
PARA HACERTE LLORAR


G5
TE QUIERO HASTA MATAR MAS NO SOPORTO HOY
    E5
TU LEJANIA Y TU ARMONÍA
   A5             D5
Y TU BELLEZA SIN PAR

ESTO SE REPITE DOS VECES, ES EL MIMO RIFF PERO CON DIFERNETES LETRAS, ACÁ HE PUESTO AMBAS. 
1) QUIERO NADA|  NO HAGO NADA|  MI APUESTA |           ES QUE EL ARTE TE HARTE 
2) REVENTEMOS |  TODOS JUNTOS|  Y A PARIR  |           ¡Y QUE EL ARTE TE HARTE!

E--x----------|-x------------|-x-----------|-------------|--------------|
B--x----------|-x------------|-x-----------|-------------|--------------|
G--x----------|-x------------|-x-----------|-7-0-7-7-0-7-|-0-7-0-7-7-0--|
D--5----------|-2------------|-7-----------|-7-0-7-7-0-7-|-0-7-0-5-5-0--|
A--5----------|-2------------|-7-----------|-5-0-5-5-0-5-|-0-5-0-5-5-0--|
E--3-------(&)|-0---------(&)|-5-----------|-------------|--------------|

...Y PARIENDO A MORIR
   G     A         D   
E--2--2--0-0--0----2--3-3-2-----
B--0--0--2-2--2----3--3-3-3-----
G--0--0--2-2--2----2--2-2-2-----
D--0--0--2-2--2----0--0-0-0-----
A--2--2--0-0--0----x--x-x-x-----
E--3--3--x-x--x----x--x-x-x-----
(REPETIR TRES VECES)
YEAH, YEAH, YEAH!


(REPETIR TODO)


SOLO:
E-----------------|----------------------|-----------------|-----------------|
B-----------------|----------------------|-----------------|-----------------|
G-4--4--4-5--4----|--4-4-4-4--4-5--4-----|--5---5---5------|-4--4-4--5-4-----|
D-----------------|----------------------|-----5---5---5---|-----------------|
A-----------------|----------------------|-----------------|-----------------|
E-----------------|----------------------|-----------------|-----------------|
(REPETIR)

E----------------|--------------------|------------------------------------|
B----------------|--------------------|------------------------------------|
G----------------|--------------------|------------------------------------|
D----------------|--------------------|------------------------------------|
A----------------|------------------5-|--b5bp0--b5bp0--b5bp0-(*)-----------| 
E-5--5--5-7--5 --|--5-5-5-5-5-7-------|------------------------------------|
                                                            
REPETIR ESTROFAS Y CORO

LUEGO VIENE ESTE RIFF
E--x-x--x-x--x-x--|--------------------------|
B--x-x--x-x--x-x--|-------------------b6b----|
G--x-x--x-x--x-x--|----------------7---------|
D--6-6--5-5--2-2--|--2-2--7-7-7-7------------|
A--6-6--5-5--2-2--|--2-2--7-7-7-5------------|
E--4-4--3-3--0-0--|--0-0--5-5-5--------------|
(REPETIR)


G     A   D     Dsus4 Dsus4 D  
Y PARIENDO A MORIR
G     A         D  Dsus4 Dsus4 D  
Y PARIENDO A MORIR 
G5             A5             D5
Y PARIENDO UNA NUEVA VIDA A MORIR
¡AY, SI PUDIÉRAMOS VIVIR!


NOTAS FINALES:
HE TRATADO DE TRANSCRIBIR LA CANCIÓN LO MEJOR POSBLE, POR LO TANTO EN ALGUNAS PARTES
HA SIDO NECESARERIO USAR LAS TABLATURAS PARA MEJOR ENTENDIMIENTO. 
(*) b5bp0.- SIGNIFICA QUE DEBES JALAR LA CUERDA CINCO EN EL TRASTE CINCO Y LUEGO SOLTARLA PARA QUE SUENE LA CUERDA AL AIRE
(&) ESTA ESPECIE DE PICK UP LA HACE EL BAJO PERO CON LA GUITARRA TAMBIÉN FUNCIONA, ES CUESTIÓN DE PONERLE SORDINA A LA CUERDA Y LUEGO CON LA PÚA O TU PROPIA UÑA HACER UNA PEQUEÑO ARRASTRE FRENTE A LAS PASTILLAS DE LA GUITARRA DE ARRIBA HACIA ABAJO.

            
            
Suggest correction
Creating personal tab
Creating personal tab
You can edit any tab online and save it as your Personal.

You can edit, replace or remove any tab part or add personal notes – all changes will be seen only by you.

Personal tabs can be accessed anytime from any device, even offline.
Learn more »
Give kudos to tab author, rate the tab!
1 2 3 4 5
comments
print report bad tab
guest
Wanna post a correction for this tab? Suggest correction