Oops, an error
Loading. Please wait.

La Música Puede Sanarte tab

version 1
version 1

Whole song

7 views 1 this week
no commentswrite comment
1 2 3 4 5
3 more votes to show rating
add to favorites
×
Save as Personal and add changes to this tab that will be seen only by you. Learn more ›
×
You can save this tab as Personal to edit and correct it or add notes. All changes will be seen only by you. Learn more »
launch autoscroll
font size
0
reset
how to read this tab
guitar tuner
edit
Autoscroll
slow
fast
+/-
esc
set tempo
stop
(INTRO)
RIFF BAJO
A--------2-2--2-3-3--3---------------------------------3--
E-3-3--3---------------1-1--1-3-3--3-0-0--0-1-1--1-0-1----


INTRO GUITARRA
E-----3-
B---3---
G-0-----


RIFF BAJO / RIFF GUITARRA


RIFF GUITARRA
E-----3-----3-----3-----3-----3--------3-----3-----3------3-----3---
B---3-----3-----3-----3-----3---3----3-----3-----3------3-----3-----
G-0-----0-----0-----0-----0--------0-----0-----0------0-----0-------

No se entiende lo que pienso, ni lo pienso entender
Ellos solo quieren sexo y parece estar bien


B5            C5             D5
Me elevo con cada acorde, yo voy a otro lugar
B5               C5                  D5
Ella es parte de mi, yo soy parte de ella y nunca es demasiado
B5            C5             D5
Me elevo con cada acorde, yo voy a otro lugar
B5            C5          D5
La música puede sanarte y darte mucho más


RIFF BAJO  / INTRO GUITARRA (EFECTO PHASER/FLANGER)

Aunque parezca mentira yo siempre quiero más
Ya casi la respiro no me cansa jamas

RIFF GUITARRA

No se entiende lo que pienso, ni lo pienso entender
Ellos solo quieren sexo y parece estar bien


B5            C5             D5
Me elevo con cada acorde, yo voy a otro lugar
B5               C5                  D5
Ella es parte de mi, yo soy parte de ella y nunca es demasiado
B5            C5             D5
Me elevo con cada acorde, yo voy a otro lugar
B5            C5          D5
La música puede sanarte y darte mucho más


SOLO DE GUITARRA


BAJO (B-G-F-C)

/ = Deslizar Ascendente
b = Estirar

1º PARTE
E--------------------------------------------------------------------
B-----------------------------------------------8--10--6---6b8-6-5---
G----------------------7---5-4-5---4----7---7-9--------------------5-
D-2/4-----4/5---7/9--------------------------------------------------
A-------5--------------5---3-2-3---2----5----------------------------
E-----3--------------------------------------------------------------

2º PARTE
E----------------------------------------------
B----15-17----15-17----15-17----15-17----15-17-
G-16-------16-------16-------16-------16-------
D----------------------------------------------

E-----------------------------------------------------
B--------20-------20-------20-------20-------20-------
G-----19----19-------19-------19-------19-------19----
D--17----------17-------17-------17-------17-------17-


E---------------------------------------------------
B-------18-------18-------18-------18-------18------
G----17----17-------17-------17-------17-------17---
D-15----------15-------15-------15-------15-------15

E------------------------------------------------------
B--------13-------13-------13-------13-------13--------
G-----12----12-------12-------12-------12-------12-----
D--10----------10-------10-------10-------10-------10--

3º PARTE
E------------------------------------------------------------
B-------12-15-------12-15-------12-15-------12-15-------12-15
G-14b16-------14b16-------14b16-------14b16-------14b16------
D------------------------------------------------------------

E---------12-15--------12-15-------12-15-------12-15-------12-15--
B---15b17--------15b17-------15b17-------15b17-------15b17--------
G-----------------------------------------------------------------
D-----------------------------------------------------------------

E--17-----------17-19-------17-19-------17-19-------17-19-------17-19-
B--20b22--20b22-------20b22-------20b22-------20b22-------20b22-------
G---------------------------------------------------------------------
D---------------------------------------------------------------------


RIFF BAJO
A--------2-2--2-3-3--3---------------------------------3--
E-3-3--3---------------1-1--1-3-3--3-0-0--0-1-1--1-0-1----


GUITARRA
E-----3--------3------------3------3---------3-------------
B---3--------------3------3-------------3----------3-------
G-0---------------------0----------------------------------

No se entiende lo que pienso, ni lo pienso entender
Ellos solo quieren sexo y parece estar bien


B5            C5             D5
Me elevo con cada acorde, yo voy a otro lugar
B5               C5                  D5
Ella es parte de mi, yo soy parte de ella y nunca es demasiado
B5            C5             D5
Me elevo con cada acorde, yo voy a otro lugar
B5            C5          D5
La música puede sanarte y darte mucho más


RIFF BAJO / RIFF GUITARRA

Ou OH... Ou OOOOOH
Ou OH... Ou OOOOOH
Ou OH... Ou OOOOOH
Ou OH... Ou OOOOOH


RIFF FINAL BAJO Y GUITARRA

D-5-5-5-----------------------------5--
A-5-5-5----8-7----7-----------------5--
E-3-3-3--------10---10-8-7-8-7-5-7--3--

            
            
Suggest correction
Creating personal tab
Creating personal tab
You can edit any tab online and save it as your Personal.

You can edit, replace or remove any tab part or add personal notes – all changes will be seen only by you.

Personal tabs can be accessed anytime from any device, even offline.
Learn more »
Give kudos to tab author, rate the tab!
1 2 3 4 5
comments
print report bad tab
guest
Wanna post a correction for this tab? Suggest correction