Oops, an error
Loading. Please wait.

A Mamá tab

version 1
version 1

Whole song

by Raices
13 views 1 this week
no commentswrite comment
1 2 3 4 5
3 more votes to show rating
add to favorites
×
Save as Personal and add changes to this tab that will be seen only by you. Learn more ›
×
You can save this tab as Personal to edit and correct it or add notes. All changes will be seen only by you. Learn more »
launch autoscroll
font size
0
reset
how to read this tab
guitar tuner
edit
Autoscroll
slow
fast
+/-
esc
set tempo
stop
Esta canción quiero dedicársela a la mujer más maravillosa
del mundo, o sea a mi mamá CARMIÑA...
TE QUIERO MUCHO MAMÁ  :-)


INTRO:  G5 (32XXXX)
               G               C               G
1)------------------------------------------------------------------
2)-------8h10b-8~------8-10b-8s7s10A-----------15-15s-13-13s-12-12~-
3)-----9b------(9)--------------------7-----------------------------
4)-9/10---------------------------------9-s15-----------------------
5)------------------------------------------------------------------
6)------------------------------------------------------------------

      C                              riff1                   riff2
1)--------------------------|   1)--------6--5-3-3v-|    1)10-10-8-8-7-7-------------|
2)----/12-12s10--10-10s8-8v-|   2)----3h5-----------|    2)--------------10-10-8b-8~-|
3)--------------------------|   3)4h5---------------|    3)--------------------------|
4)--------------------------|
5)--------------------------|
6)--------------------------|


  G             C
Quiero cantarle a la mujer
 Cm            riff1  G
Que me dio la vida,    Que me dio el ser
E)3s5   D        E)5s7    Em
     Te agradezco todo    lo que haces por mi
E)7s9       A        D     D7    riff2
     Y sin ti no podría vivir

  G                    C
Quiero que tú sientas todo mi amor
 Cm         riff1  G
Eres tú la luz   de mi camino
E)3s5  D         E)5s7   Em
     Eres tú mi guía    en todo lugar
E)7s9       A          D      D7   riff2
     Y que Dios te bendiga mamá

CORO:
        G                  Bm
Porque tú (Porque tú)  vivirás [Vivirás]
      Em       Bm      C
Por siempre en mi corazón (Corazón)
     G                   A
Estarás (Estarás) y de ahí (Y de allí)
        D  D7
No te irás

        G                      Bm
Porque yo (Porque yo)  quiero ser (Quiero ser)
      Em     Bm          C
Tu orgullo mamá, quiero ser (Quiero ser)
        G                        A
Tu alegría (Tu alegría)  y que estés (Y que estés)
   D               G     C  G  C  G
Conmigo todos los días


INTRO:......

CORO:......G

            
            
Suggest correction
Creating personal tab
Creating personal tab
You can edit any tab online and save it as your Personal.

You can edit, replace or remove any tab part or add personal notes – all changes will be seen only by you.

Personal tabs can be accessed anytime from any device, even offline.
Learn more »
Give kudos to tab author, rate the tab!
1 2 3 4 5
comments
print report bad tab
guest
Wanna post a correction for this tab? Suggest correction