Oops, an error
Loading. Please wait.

El Satánico Dr. Cadillac bass

version 3
version 3

Whole song

191 views 3 this week
no commentswrite comment
1 2 3 4 5
3 more votes to show rating
add to favorites
×
Save as Personal and add changes to this tab that will be seen only by you. Learn more ›
×
You can save this tab as Personal to edit and correct it or add notes. All changes will be seen only by you. Learn more »
launch autoscroll
font size
0
reset
guitar tuner
edit
Autoscroll
slow
fast
+/-
esc
set tempo
stop
hola como estan bueno aki les dejo una de mas canciones que mas me
gusta de los fabulosos asi ke ahi les va..
INTRO:
G|---------------------------|
D|---/12-11-10-9-8-7-6-5-4-3-|
A|---------------------------|
E|-3-------------------------|
SLAP:1
G|----------x---x------------x---3----------x---x-x----------3-55-|
D|------3h5--------------3h5------------3h5--------------3h5------|
A|------------3---1------------3--------------3-------------------|
E|-3-xx-------------3-xx-----------3-xx-------------3-xx----------|

G|--------------x---x------------3-55--------------x---x-----------------|
D|-3h5------3h5--------------3h5------3h5------3h5-------------3h5-------|
A|----------------3---1------------------------------3---1---------3h5---|
E|-----3-xx-------------3-xx--------------3-xx-------------3-x---------3-|

VERSO:(x3)
G|------------------------------------------------------------------------|
D|------------------------------------3-4-5-----3-4-5---------------------|
A|-33-55-66-6h8-6-1-33-55-66-6-8/10-8------x-5--------x-5-5----3-5----3-5-|
E|-----------------------------------3---------3---------3--x-5----x-5----|

G|-----------------------------|
D|-----------------3-4-5-------|
A|-----3-5-----3---------x-5---|
E|-x-5-----x-5---3-----------3-|

CORO:(x2)
G|-------------------------------------------------------------|
D|---x-5-8--x-5-8--x-5-8---5---0-3-555-3---0-3-555-3-----5-5-5-|
A|-6------6------6------6-6-6-1---------5-1---------5-3-3-3----|
E|-------------------------------------------------------------|

G|------------------------------------|
D|-----------5---5-5------------------|
A|-3-0-3-0-3---3-----33-0-5-----3-4-5-|
E|--------------------------5-5-------|

luego nuevamente el verso(x3),y coro(x2)
SLAP:2
G|----------x---x------------5-x-----x-----------x---x------------------|
D|------3h5--------------3h5-----3h5---------3h5--------------3h5-------|
A|------------3---1--------------------------------3----1---------3h5---|
E|-3-xx-------------3-xx----------------3-xx--------------3-x---------3-|

SOLO,BAJO:
G|---------------3---------------------------------3-x----x-3h5-----------|
D|---55--55-3h5---5--55---3---3----55--55----x-3h5----3h5-------3h5-------|
A|----------------------------------------3h5-----------------------3h5---|
E|-3----3-----------3----3---1--1-3---3---------------------------------3-|

G|-3-x-----3-55-----3-x----3h5--------------------------------------------|
D|-----3h5-----3h5------3h5---3h5------55--3--3---/12-11-10-9-8-7-6-5-4-3-|
A|--------------------------------3h5-------------------------------------|
E|------------------3-----------------3---3--1---1------------------------|

coro(x2)

FINAL:
G|-------|
D|-------|
A|-------|
E|-3-333-|

bueno no se porque no salieron los slash pero en fin no se olviden
de hacer los slide al final de la intro y del solo ya xau..

            
            
Suggest correction
Creating personal tab
Creating personal tab
You can edit any tab online and save it as your Personal.

You can edit, replace or remove any tab part or add personal notes – all changes will be seen only by you.

Personal tabs can be accessed anytime from any device, even offline.
Learn more »
Give kudos to tab author, rate the tab!
1 2 3 4 5
comments
print report bad tab
guest
Wanna post a correction for this tab? Suggest correction