Oops, an error
Loading. Please wait.

Yo Quiero Morirme Acá bass

version 2
version 2

Whole song

16 views 1 this week
no commentswrite comment
1 2 3 4 5
3 more votes to show rating
add to favorites
×
Save as Personal and add changes to this tab that will be seen only by you. Learn more ›
×
You can save this tab as Personal to edit and correct it or add notes. All changes will be seen only by you. Learn more »
launch autoscroll
font size
0
reset
guitar tuner
edit
Autoscroll
slow
fast
+/-
esc
set tempo
stop
 no es igual por ke
cuesta encontrar todo lo ke en la original hace
pero esta esla base!!

escuchenla y saquen uds el resto

BAJO

LA LA RA LA....
G--------------------------2-5--5-5--------------------------------------I
D--------2-5-5---3--3-3---------------------2-5-5-5----5-3-5-3-5-2-5-5---I
A-3-3-3------------------------------3-3-3--------------------------5--3-I
E------------------------------------------------------------------------I

G--------------------------2-5--5-5--------------------------------------I
D--------2-5-5---3--3-3---------------------2-5-5-5----5-3-5-3-/-2-------I
A-3-3-3------------------------------3-3-3-------------------------5-----I
E------------------------------------------------------------------------I
QUE YO QUE YO...

G--------------------------2-5--5-5--------------------------------------I
D--------2-5-5---3--3-3---------------------2-5-5-5----5-3-5-3-5-2-5-5---I
A-3-3-3------------------------------3-3-3--------------------------5--3-I
E------------------------------------------------------------------------I

O TAMBIEN EN VES DE LO DE ARRIBA

G--------------------------------------7/12-10-12-10-12-9-12----12-----I
D------------------------------------------------------------12--------I
A----------------------------------------------------------------------I
E----------------------------------------------------------------------I

G--------------------------2-5--5-5------------------------------------I
D--------2-5-5---3--3-3---------------------2-5-5-5----5-3-5-3-/-2-----I
A-3-3-3------------------------------3-3-3-------------------------5---I
E----------------------------------------------------------------------I

INTERMEDIO

G---------------------------------------------------------------------I
D----------------3-3-3-----------5-5-5--------------------------------I
A-----3-3-3---3---------3-3-3--3--------------------------------------I
G---------------------------------------------------------------------I

TAMBORES

G--------------------------------------------------------------I
D--------------------------------------------------------------I
A-----3-3-3------------3-3-3-----------------------------------I
G-------------1-1-1-----------3-3-3----------------------------I

SOLO DE SAX

G--------------------------2-5--5-5--------------------------------------I
D--------2-5-5---3--3-3---------------------2-5-5-5----5-3-5-3-5-2-5-5---I
A-3-3-3------------------------------3-3-3--------------------------5--3-I
E------------------------------------------------------------------------I

G--------------------------2-5--5-5--------------------------------------I
D--------2-5-5---3--3-3---------------------2-5-5-5----5-3-5-3-/-2-------I
A-3-3-3------------------------------3-3-3-------------------------5-----I
E------------------------------------------------------------------------I

DESPUES DEL CORO DE SOLO VOZ Y BATERIA ENTRA:

G--------------------------------------7/12-10-12-10-12-9-12----12-----I
D------------------------------------------------------------12--------I
A----------------------------------------------------------------------I
E----------------------------------------------------------------------I
y de nuevo el mismo patron

            
            
Suggest correction
Creating personal tab
Creating personal tab
You can edit any tab online and save it as your Personal.

You can edit, replace or remove any tab part or add personal notes – all changes will be seen only by you.

Personal tabs can be accessed anytime from any device, even offline.
Learn more »
Give kudos to tab author, rate the tab!
1 2 3 4 5
comments
print report bad tab
guest
Wanna post a correction for this tab? Suggest correction