Oops, an error
Loading. Please wait.

Cambia Tu Estrategia tab

version 4
version 4

Whole song

11 views 1 this week
no commentswrite comment
1 2 3 4 5
3 more votes to show rating
add to favorites
×
Save as Personal and add changes to this tab that will be seen only by you. Learn more ›
×
You can save this tab as Personal to edit and correct it or add notes. All changes will be seen only by you. Learn more »
launch autoscroll
font size
0
reset
how to read this tab
guitar tuner
edit
Autoscroll
slow
fast
+/-
esc
set tempo
stop
HOLA A TODOS SOY PATO, OTRA VEZ. ESTA ES OTRA VERSION
AHI LES VA brothers:

E|-----------------------------------------|
A|-----------------------------------------|
D|-----------------------------------------|
G|-----------------------------------------|
B|--9h10p9---7---5--4-5-----5-4-----2h4p2--|
E|-----------------------7------7----------|


E|--------------------------------------|
A|--------------------------------------|
D|--------------------------------------|
G|--------------------------------------|
B|-9h10p9--7--5-4-5----5-4--------------|
E|------------------7-------7-7p9-------|

MI                          SI7
Cambia tu estrategia revisa todo lo que soy
          DO#m                         FA#m
que no encuentres las malditas manías de otro corazón
       LA                           MI
tú que sabes de nostalgia y perfume dame tu sanción
       LA                                   SI7
tú que sabes congelar las heridas dame tu calor

MI                           SI7
Cambia tu estrategia analiza que no soy mejor
    DO#m                                 FA#m
solamente me encuentro en otro momento y quiero dar mi amor
         LA                              MI
y es por eso que me encuentras dispuesto a sentir mejor
        LA                          SI7           MI   SI7   LA
y entender esa sonrisa escondida que otro no entendióoooooooo

                MI          SI7        LA
que saben los helechos de estar en la arena
                MI        SI7      LA
que saben los artistas de frases pequeñas
                MI       SI7       LA
que sabe la amargura de azúcar con fresa
                  MI         SI7        LA
y que sabes tú de mí, cambia ya tu estrategia

E|-----------------------------------------|
A|-----------------------------------------|
D|-----------------------------------------|
G|-----------------------------------------|
B|--9h10p9---7---5--4-5-----5-4-----2h4p2--|
E|-----------------------7------7----------|


E|--------------------------------------|
A|--------------------------------------|
D|--------------------------------------|
G|--------------------------------------|
B|-9h10p9--7--5-4-5----5-4--------------|
E|------------------7-------7-7p9-------|


(Los mismos Acordes)


cambia tu estrategia en medida de hacerme mejor
que no sea tu movida violenta, puedo estar sin voz
pero quiero que me lleves despacio a tu corazón
que no temas porque si es que te engaño, me he engañado yo

no tengo la malicia que afirma tu esquema
no tengo la intención de quitarte sospecha
solamente te invito a romper tu cadencia
y no vengo a molestar, cambia ya tu estrategia

oooooooohhhhhhhh


todo el tiempo llevo tu maleta
se te va el avión casi no regresas
vive bien el bien, lo demás espere
si quieres mi amor, sólo ven sincera
no me mires sin creerme todo
yo soy lo que soy, lo demás ni modo
busco tu calor de mujer entera
y hace tanto tiempo que empezó mi espera

que saben los helechos de estar en la arena
que saben los artistas de frases pequeñas
que sabe la amargura de azúcar con fresa
y que sabes tú de mí, cambia ya tu estrategia

que saben los helechos de estar en la arena
que saben los artistas de frases pequeñas
que sabe la amargura de azúcar con fresa
y que sabes tú de mí, cambia ya tu estrategia
(tu estrategia)
Suggest correction
Creating personal tab
Creating personal tab
You can edit any tab online and save it as your Personal.

You can edit, replace or remove any tab part or add personal notes – all changes will be seen only by you.

Personal tabs can be accessed anytime from any device, even offline.
Learn more »
Give kudos to tab author, rate the tab!
1 2 3 4 5
comments
print report bad tab
guest
Wanna post a correction for this tab? Suggest correction