Oops, an error
Loading. Please wait.

Chitón tab

version 2
version 2

Whole song

5 views 1 this week
no commentswrite comment
1 2 3 4 5
3 more votes to show rating
add to favorites
×
Save as Personal and add changes to this tab that will be seen only by you. Learn more ›
×
You can save this tab as Personal to edit and correct it or add notes. All changes will be seen only by you. Learn more »
launch autoscroll
font size
0
reset
how to read this tab
guitar tuner
edit
Autoscroll
slow
fast
+/-
esc
set tempo
stop
Ante todo, gracias a Rafa Kas (por el punteo) a Punkarilla (adri)
x los akordes!... ke vosotros sois los autores de esto, io solo
envio... un saludo!... Salud!

________________________________________________________________
--Leyenda:
Espero ke entiendas lo de L (ligar) solo has de mantener la nota
v->Vibrato
h/p-> hammer on, pull off
Son todas corcheas menos las ligadas entre si :P
________________________________________________________________


Intro:SI-DO#-RE-FA#


e--7-4-----7-4----|-7-4-----7-4----|-7-5-4---5h4----|------------------
B------5-4-----5-4|-----5-4-----5-4|-------7-----7-5|-5h4--------------
G-----------------|----------------|----------------|-----6-4L(4)vvvvvv
D-----------------|----------------|----------------|------------------
A-----------------|----------------|----------------|------------------
E-----------------|----------------|----------------|------------------

e--7-4-----7-4----|-7-4-----7-4----|-7-5-4---4h5p4--|-------------------
B------5-4-----5-4|-----5-4-----5-4|-------7------7L|(7)vvvvv-----------
G-----------------|----------------|----------------|-------------------
D-----------------|----------------|----------------|-------------------
A-----------------|----------------|----------------|-------------------
E-----------------|----------------|----------------|-------------------
Chiton! me voy a detener
intenta llamar
hoy soy el centro de atención
que el mundo me observe: alternan MI-LA-SI

Aller mismo ocurrio otra gota callo
DO# MI LA SI
y se esfuma mi eterna paciencia
DO# MI LA SI
no he podido dormir y lo vais a pagar
DO# MI LA SI
es mi día y hoy voy
DO# MI LA


A cotar la calle, a gritar al viento
MI LA DO# SI
A soltar amarras, a liberar mis miedos
MI LA DO# SI
a mostrar el loco que todos escondemos
MI LA DO# SI
ojala mañana no aparezca el sol
LA FA# SI


Chitón me voy a detener... : (alternado ) MI-LA-SI

SOLO, no lo pude sacar... se que esta sobre varias escalas..
cuando pueda lo pondre

Decidir escapar , liberar la tensión
DO# MI LA SI
Desenchufo la alarma y el timbre
DO# MI LA SI
No intentéis esperar he cerrado el telón
DO# MI LA SI
es mi día y hoy voy
LA FA# SI


A alcanzar los mares, a surcar las cumbres
MI LA DO# SI
a borra fronteras,a detener las nubes
MI LA DO# SI
buscaré el sentido desta vida incierta
MI LA DO# SI
si me sobra tiempo tomare un café
LA FA# SI


Repito, gracias a los dos...  enga, a practicar!

            
            
Suggest correction
Creating personal tab
Creating personal tab
You can edit any tab online and save it as your Personal.

You can edit, replace or remove any tab part or add personal notes – all changes will be seen only by you.

Personal tabs can be accessed anytime from any device, even offline.
Learn more »
Give kudos to tab author, rate the tab!
1 2 3 4 5
comments
print report bad tab
guest
Wanna post a correction for this tab? Suggest correction