Oops, an error
Loading. Please wait.

Escuela De Las Américas tab

version 2
version 2

Whole song

11 views 1 this week
no commentswrite comment
1 2 3 4 5
3 more votes to show rating
add to favorites
×
Save as Personal and add changes to this tab that will be seen only by you. Learn more ›
×
You can save this tab as Personal to edit and correct it or add notes. All changes will be seen only by you. Learn more »
launch autoscroll
font size
0
reset
how to read this tab
guitar tuner
edit
Autoscroll
slow
fast
+/-
esc
set tempo
stop
Intro
-----
C GGGG  C GGGGG C GGGGG  C GGGG A

    A         D
E|--------------------|
B|--------------------|
G|--------------------|
D|--------------------|X2 veces y luego E  F C G
A|--0-3-0---0-5-3-2---|
E|--------3---------3-|

Estrofa
-------
A                             C            G
Eskuadrones de la muerte llegaron por la mañana
A                             C            G
mataron a mi mujer y al hijo de sus entrañas
F           G               E         A
Mercenarios ponen odio komo uniko konsuelo
F               G          C             A        G
a plena luz del dia destrozaron todo el pueblo   (Lick 1)
A                             C            G
Finanziados por el yankie , por su propio gobierno
A                             C            G
campesinos mutilados se desangran en el suelo
F           G               E         A
A ellos no les gusta nuestro apoyo a la guerrilla
F               G          C             A        G
por eso nos asesinan por eso nos akribillan  Sin mas!!

Estribillo:
----------
         F
Pero sin mas
          G
solo keda pelear
         F
Pero sin mas
         G
No puede retroceder

(vuelve al intro)

Solo:
-----
E||-------------------------------------------|
B||--13-13-13-13----------------16b17-17-13-15|
G||--12-12-12-12-12-12-12-12-12---------------|
D||--------------12-12-12-12-12---------------|
A||-------------------------------------------|
E||-------------------------------------------|

-------------------------------2-3-2-|
---------------------------3-5-------|
---------------------2-4-5-----------|
---------------2-3-5-----------------|
---------2-3-5-----------------------|
-0-2-3-5-----------------------------|


E|-3---------------------------------------|
B|---6-5-3---------13-12-12-12-12-13-12-12-|
G|---------5-4-2---12-12-12-12-12-12-12-12-|
D|---------------5~------------------------|
A|-----------------------------------------|
E|-----------------------------------------|

-------------------------15-13-12----------15-13-|
-12-12-13-12-12-12-12-------------15-13-12-------|
-12-12-12-12-12-12-12----------------------------|
----------------------12~------------------------|
-------------------------------------------------|
-------------------------------------------------|

E|15-13-12--------5-13-15-13-12--------15-13-15-|
B|--------15-13-12-------------15-13-12---------|
G|----------------------------------------------|
D|----------------------------------------------|
A|----------------------------------------------|
E|----------------------------------------------|

13-12--------15-13-15-13-12---------s19-|
-----15-13-12--------------15-13-12-----|
----------------------------------------|
----------------------------------------|
----------------------------------------|
----------------------------------------|

Lick 1:
-------
E|---------------|
B|---------------|
G|---------------|
D|---------2-3-5-|
A|----2-3-5------|
E|-3-5-----------|
Suggest correction
Creating personal tab
Creating personal tab
You can edit any tab online and save it as your Personal.

You can edit, replace or remove any tab part or add personal notes – all changes will be seen only by you.

Personal tabs can be accessed anytime from any device, even offline.
Learn more »
Give kudos to tab author, rate the tab!
1 2 3 4 5
comments
print report bad tab
guest
Wanna post a correction for this tab? Suggest correction