Oops, an error
Loading. Please wait.

Sólo Un Día tab

version 2
version 2

Whole song

10 views 1 this week
no commentswrite comment
1 2 3 4 5
3 more votes to show rating
add to favorites
×
Save as Personal and add changes to this tab that will be seen only by you. Learn more ›
×
You can save this tab as Personal to edit and correct it or add notes. All changes will be seen only by you. Learn more »
launch autoscroll
font size
0
reset
how to read this tab
guitar tuner
edit
Autoscroll
slow
fast
+/-
esc
set tempo
stop
Intro:
e|---5-----7------9------------5-----5-------------------------|
B|---8-----10-----10-------------------------------10-----10---|
G|------------------------5h7-----7----7------7h9-------9----9-|
D|-------------------------------------------------------------|
A|-------------------------------------------------------------|
E|-------------------------------------------------------------|

e|-----5---5--------------------------|
B|-----------------------10----10-----|
G|-5h7---7----7------7h9-----9--------|
D|------------------------------------|
A|------------------------------------|
E|------------------------------------|

e|------------------------------------|
B|---7---7---8---8---7---7---10---10--|
G|-7---7---7---7---7---7---7----7-----|   Esta parte 4 veces
D|------------------------------------|
A|------------------------------------|
E|------------------------------------|


Estrofa1:

MI             RE       SI           MI
Bonito día soleado imposible de olvidar,
                    RE            SI          MI
el miedo se apodera de la estatua de la libertad.

                   RE           SI        MI
Alarmas y sirenas, polvo que no deja respirar,

                      LA                   RE
miento si digo que me lo puedo creer, pero debo preguntar:


Estrofa2:

SOL                      RE
   ¿Qué hicisteis en Nicaragua? ¿Quién bombardeó Vietnam?

SOL                RE
    En Bahía de Cochinos, ¿Quién perdió la dignidad?

SOL                 RE
    Hiroshima y Nagasaki, ¿Quién del mapa las borró?

SOL                           RE
    ¿Quién impone y quién aplasta con total impunidad?


Estribillo:

LA             MI             LA            RE
Sólo un día la guerra en casa, el olor a carne quemada,

LA                     MI               RE    SI-MI
el mundo tiembla, la bestia encaja el dolor.


Punteillo: (1:30) x2
e|---------------------------------------|
B|---------------------------------------|
G|-5--------5--------5--------5--7--5----|
D|----5--7-----5--7-----5--7-----------7-|
A|---------------------------------------|
E|---------------------------------------|

e|---------------------------------------|
B|------------------------------5--------|
G|-5--------5--------5--------5---5------|
D|----5--7-----5--7-----5--7--------7----|
A|---------------------------------------|
E|---------------------------------------|

Después de esto repiten la intro

Estrofa3 (Igual que la 1):

No lloro por tus muertos, ni una lágrima me va a caer
hasta que no deje de hacerlo por los que me ocultas,
las víctimas de tu avaricia, de tu afán por dominar,
verdugo del que nunca te va a obedecer, ni se inclinará a tus pies.


Después se repite la estrofa2, estribillo y acaba
con la intro repitiéndola hasta acabar.


Kualkier duda o corrección puedes mandarme
1 correo a chile007_es@

            
            
Suggest correction
Creating personal tab
Creating personal tab
You can edit any tab online and save it as your Personal.

You can edit, replace or remove any tab part or add personal notes – all changes will be seen only by you.

Personal tabs can be accessed anytime from any device, even offline.
Learn more »
Give kudos to tab author, rate the tab!
1 2 3 4 5
comments
print report bad tab
guest
Wanna post a correction for this tab? Suggest correction