Oops, an error
Loading. Please wait.

Lápiz Labial tab

version 2
version 2

Whole song

37 views 1 this week
no commentswrite comment
1 2 3 4 5
3 more votes to show rating
add to favorites
×
Save as Personal and add changes to this tab that will be seen only by you. Learn more ›
×
You can save this tab as Personal to edit and correct it or add notes. All changes will be seen only by you. Learn more »
launch autoscroll
font size
0
reset
how to read this tab
guitar tuner
edit
Autoscroll
slow
fast
+/-
esc
set tempo
stop
1|--------------------------------------------------------------
2|-----3-3-------------------5-5--------------------------------
3|-2-4-----4-4-2-0-2/4---4-5------5-5-4-5-0/2-------------------

1|-------10-10--------------------------12-12-------------------
2|-10-12-------12-12-10-8-10/12---12-13-------13-13-12-13-8/10--
3|--------------------------------------------------------------


      G                       D
Me dejaste un recado en el espejo
                              G
bien escrito con tu lapiz labial
                          D
de pasada manchaste mi camisa
                              G
con el brillo de tu lapiz labial


         B                      Em
Desde entonces no se lo que me pasa
         D                    G
traigo suelto el instinto animal
        A
quiero verte de nuevo por la casa
                                       D
hundirme en el embrujo de tu lapiz labial


 G         Riff 1                          Riff 1  2|----3-3--3----
Manchame                                           3|-3/4----4-----
                Bm        Riff 2
de nuevo ven y manchame
               C               D           Riff 2  2|-----7-7--7---
coqueta ven y manchame manchame                    3|-6/7-----7----
                 G
con tu lapiz labial


 G
Manchame
              Bm
de nuevo ven manchame
                C                D
tan solo ven y manchame manchame
                 G
con tu boca sensual


1|--------------------------------------------------------------
2|-----3-3-------------------5-5--------------------------------
3|-2-4-----4-4-2-0-2/4---4-5------5-5-4-5-0/2-------------------

1|-------10-10--------------------------12-12-------------------
2|-10-12-------12-12-10-8-10/12---12-13-------13-13-12-13-8/10--
3|--------------------------------------------------------------


Me dejaste tus labios en la boca
bien marcados con tu lapiz labial
varios besos pintados en el cuerpo
con el brillo de tu lapiz labial

Desde entonces no se lo que me pasa.......

1|--------------------------------------------------------------
2|-----3-3-------------------5-5--------------------------------
3|-2-4-----4-4-2-0-2/4---4-5------5-5-4-5-0/2-------------------

1|-------10-10--------------------------12-12-------------------
2|-10-12-------12-12-10-8-10/12---12-13-------13-13-12-13-8/10--
3|--------------------------------------------------------------

Manchame...
Suggest correction
Creating personal tab
Creating personal tab
You can edit any tab online and save it as your Personal.

You can edit, replace or remove any tab part or add personal notes – all changes will be seen only by you.

Personal tabs can be accessed anytime from any device, even offline.
Learn more »
Give kudos to tab author, rate the tab!
1 2 3 4 5
comments
print report bad tab
guest
Wanna post a correction for this tab? Suggest correction