Oops, an error
Loading. Please wait.

Canción Para Mi Sol tab

version 2
version 2

Whole song

Interactive

12 views 1 this week
no commentswrite comment
1 2 3 4 5
3 more votes to show rating
add to favorites
×
Save as Personal and add changes to this tab that will be seen only by you. Learn more ›
×
You can save this tab as Personal to edit and correct it or add notes. All changes will be seen only by you. Learn more »
launch autoscroll
font size
0
reset
how to read this tab
guitar tuner
edit
Autoscroll
slow
fast
+/-
esc
set tempo
stop
INTRO:   A  E  A  E  B  C#m-F#  A  E

e|--2/4--2--0-0^2-------0---5-5-5--4--2-2/4--0--2-4---4-2--0-0^2-0---5-5-5--4--2-2/4-0--2/4---|
B|------------------0^2-----------------------------------------------------------------------|
G|--2/4--2--1-1^2-----------6-6-6--4--2-2/4--1--2-4---4-2--1-1^2-1---6-6-6--4--2-2/4-1--2/4---|
D|-----------------2--------------------------------------------------------------------------|
A|--------------------------------------------------------------------------------------------|
E|--------------------------------------------------------------------------------------------|

e|---4---5---7-7--9--7---9-7-5-7-----9-12^9-11-9-------11---9--7--7-9-9-7-------5----5--4-2-0-|
B|--------------------------------------------------------------------------------------------|
G|-4---6---8---8--8--8---9-8-6-8--/9-----------9--8-/11---9---8---8-9-9-8---5^6---5^6---------|
D|--------------------------------------------------------------------------------------------|
A|--------------------------------------------------------------------------------------------|
E|--------------------------------------------------------------------------------------------|
                 1/2
e|------------------------|
B|------------------------|              
G|------------------------|              
D|--------------4b(4)-2---|
A|--4--2------------------|
E|--------4--2------------|

VERSO 1:
              A                                E
Los días que tienen sol las cosas son muy diferentes aquí en la Ciudad
                           A                                    E
podría creer que hasta el mismo sol tiene algo que ver con los tonos que hacen la verdad
                         B                                             C#m                  F#
que no se ha visto hace tiempo y que alguien mantiene escondida en secreto oscureciendo más
               A                                 E
que el nombre de los tantos que viven en este lugar


VERSO 2:
              A                                   E
Los días que tienen sol se ve a través de los critales sobre un cielo azul
                    A                                      E
se puede ver en la calles sí, los días que tienen sol me inundan de sol y de luz
                     B                                      C#m                    F#
podría empezar otra vez con todo podría hasta creer todo aquello que ya no creo mas
                   A                              E
podría decir que anda México y jamás dejó de caminar


INTER:
                         B#m                D                   A                     E
Pero en los tiempos que corren grandes son los nubarrones que ocultan la buena intención
                         B#m            D                 A                  E
y el viento sopla hacia tantos lados en este momento que ya no veo la dirección
                         F#                          A                 E
que he de tomar y hasta cuando me puedo llamar ciudadano libre de un país
                   F#                         B7                    
del que he nacido orgulloso pero no vivo felíz


CORO:
           A                              E
Canción para mi sol por ese derecho que tiene el sol y la verdad
                     A                             E
el derecho a la esperanza sin otro discurso quiero algo que pueda tocar
                         B                                 C#m              F#
saber que vivo entre hermanos, que no hay enemigos que corrompan la juventud
                            A                      E
que habito un sitio que empieza y que rebosa de salud


SOLO: A/G   E   A/G    E   B   C#m-F#   A   E


INTER:
                         B#m                D                  A                       E
Pero en los tiempos que corren grandes son los nubarrones que cubren cualquier convicción
                         B#m             D                 A                 E
y el viento sopla hacia tantos sitios en este momento que ya no se ve dirección
                           F#                             A                   E
que hay que tomar y hasta cuando te puedes llamar compatriota en favor de esa paz
                F#                               B7
que se ha mantenido a costa de pararse en los demás


CORO:
                      A                                  E
En esos días que se asoma el sol aunque sigas lejos yo siento que andas por aquí
                    A                              E
y los nublados también mi amor no tiene nada que ver tu siempre estás aquí
                      B                                    C#m                 F#
y a donde quiera que valla voy pensando en todo lo que un solo día con sol será
                   A                            E
cuando llame a tu puerta y a mi sol vuelva a mirar
    B  A  E     B                E   E              
e|-----------------------------------0--------------------0--|
B|-----------------------------------0-----------5---4--2-0--|
G|--------------4--2--1--------------1-0^1----------------1--|
D|-----------------------4-------2---2-----2---2---1------2--|
A|--2--0--------------------2-4------2--------------------2--|
E|--------0--------------------------0--------------------0--|
  ------------------------------
              bajo

ACORDES:
     EbGDAE
A    556775
E    001220
B    244422
C#m  456644
F#   223442
B#m  234422
D    2320xx
B7   202120
A/G  32220x

b (bend): levantar la cuerda (medio tono)
^ (hammer on): tocar la primera nota poner el dedo en la segunda
/ (slide): deslizar desde la primera nota hasta la segunda

            
            
Suggest correction
Creating personal tab
Creating personal tab
You can edit any tab online and save it as your Personal.

You can edit, replace or remove any tab part or add personal notes – all changes will be seen only by you.

Personal tabs can be accessed anytime from any device, even offline.
Learn more »
Give kudos to tab author, rate the tab!
1 2 3 4 5
comments
print report bad tab
guest
Wanna post a correction for this tab? Suggest correction