Oops, an error
Loading. Please wait.

De La Canción De Protesta tab

version 2
version 2

Whole song

Interactive

25 views 1 this week
no commentswrite comment
1 2 3 4 5
3 more votes to show rating
add to favorites
×
Save as Personal and add changes to this tab that will be seen only by you. Learn more ›
×
You can save this tab as Personal to edit and correct it or add notes. All changes will be seen only by you. Learn more »
launch autoscroll
font size
0
reset
how to read this tab
guitar tuner
edit
Autoscroll
slow
fast
+/-
esc
set tempo
stop
Está completa, y antes de tocar chequen la afinación 
(claro, si la quieren tocarla en el mismo tono del autor en el 
disco ?entre pairos y derivas?,
 y si no, puede ser con la afinación normal).


INTRO

D#---------------2-----------0------------------------------------------|
G#---------------------------------------0------------------------------|
C#---0---------------------------------------------------0--------------|
F#----0----------------------------------------------------------7---5--|
A#-----0--1--0---3-----------------------------------8---7---5----------|
d#-------------------0---2---3---5---7---8---7---5----------------------|


D#----3---------------------------------3-----------2-------------------|
G#----------------3---2---0---------------------------------------------|
C#----------------------------------2------2----------0-----------0-----|
F#--------------------------------2---------------------2-------2-------|
A#----0---3-----------3---1---0h1-------0--------0--------3-1h0---------|
d#------------3---0---------------------------0-------------------------|


D#--------------2-----------0------------------------------2------------|
G#----------------------------------------3-----------------------------|
C#--0-------------------------------0-------------------5----0----0-----|
F#---0--------------------------0---------5--5--5-----5---------2---2-2-|
A#----0--1--0---3-----------------0---0---6--5--3h5h3-----------3-----3-|
d#------------------0---2---3-------0-----------------------------------|


D#-----------------------|
G#-----------------------|
C#--------0--------------|
F#-----2-----2-----2-----|
A#-----3-----3-----1-----|
d#-----------------------|

FILL1
 
D#----0-----------------|
G#----------------------|
C#-------2---2------2---|
F#-----------0h2h0--0---|
A#----------------------|
d#----------------------|

FILL2

D#----3-----------------|
G#----------------------|
C#-------0--------------|
F#-----------0------0---|
A#-----------0h1h0--0---|
d#----------------------|

FILL3

D#----------------------|
G#----------------------|
C#----0-----------------|
F#-------2----------2---|
A#------------------3---|
d#---------2h3h2----2---|
 
FILL4

D#----------------------|
G#----------------------|
C#----0-----------------|
F#-------2--------------|
A#---------3------3--3--|
d#-----------0---2--3---|


           G          D9/F#         Em  FILL1 
Que se ha dicho del cantante de protesta 
        C              A          D  FILL3
que la rebeldía que había se reformó,                
        C            B7
que vistió saco y corbata 
                    Em
que trae su licenciatura, 
      C
como nobiliario título 
     D         FILL4   (se liga con el C)
que ya se le pasó.
                

         C*   
Que ha encontrado un sitio 
   D4         G
en donde renegaba 
       Em           A
convirtiéndose al final 
                      F - C - D7,4
en lo que tanto protestó.


         G           D/F#           Em   FILL1
¿Qué se piensa de la canción de protesta? 
          C        A                D  FILL3
Que era inútil y al final se comprobó 
            C           B7
que hoy no cuenta nada nuevo, 
        Em                            C
que no está de mda y que ha quedado allá 
                          D   FILL4
con el pasado y con los sueños 

que echó a andar,            
           C*          D4         G        
que es la suciedad de los años sesenta, 
        Em            A7 
que se acabaron los hippies, 
                           F - C - D7-D4
que esto, que otro y tanto más. 


(hasta aquí se arpegia y lo que sigue se rasguea)

        G           D4/F#          Em
Que se canta y que revive viejas glorias, 
         A/C#                          D - D4
que se guarda con su estuche en un rincón, 
      G           D4/F#
canto de contradicciones 
        Em
que empezaba en los demás 
      C           A7            D - D4
como todo lo que marcha para atrás.


(aquí se vuelve a arpegiar)

         G             C         G   FILL2
Que la protesta es una engaña muchachos, 
        C              A7            D  FILL3
que es para perder el tiempo y fantasear, 
          G        D/F#
que si es uno socialista 
            Em   
y que otra vez viene a joder  
          C              A7         D   FILL4
con esos pobres que no quieren trabajar 
         F            C             G
y que se ha hecho vieja esta calamidad. 


D#---------------2-----------0------------------------------------------|
G#---------------------------------------0------------------------------|
C#---0---------------------------------------------------0--------------|
F#----0----------------------------------------------------------7---5--|
A#-----0--1--0---3-----------------------------------8---7---5----------|
d#-------------------0---2---3---5---7---8---7---5----------------------|


D#----3---------------------------------3-----------2-------------------|
G#----------------3---2---0---------------------------------------------|
C#----------------------------------2------2----------0-----------0-----|
F#--------------------------------2---------------------2-------2-------|
A#----0---3-----------3---1---0h1-------0--------0--------3-1h0---------|
d#------------3---0---------------------------0-------------------------|


       G             D/F#          Em  FILL1
Hace tiempo que se escuchan estas voces 
        C            A7         D  FILL3
de ese modo se han ganado su razón, 
        C          B7  
con tantos malos ejemplos 
      Em           A/C#           C
se diría que sus informes son lo mismo 
                          D       FILL4
y quién se acuerda que llevaban dirección.


         C*         D4
Que canciones y cantores 
       G             Em
se quejaban de este mundo 
           A7
en que habitamos 
                   F - C - D9
por hacerlo algo mejor.


          G           D/F#         Em
Cuando al ímbecil le mostraron la luna 
                 C            A7        D FILL4  
sólo pudo ver el dedo del que se la señaló, 
       G              D4/F#           Em*
yo no soy quién para subrayar que es cierto 
                         C
pero quien dijo esto lo hizo 
        A7         D   FILL4
con la mejor intención.


(lo siguiente va rasgueado)


       G                D/F#          Em
Yo no sé cuantos se han valido en los fines 
                    C           A7           D - D4
para aprovechar los medios y llevarse su porción, 
       G            C           G  
pero ocurre que cerramos los caminos 
         Em               C
cuando aquel que nos los muestra 
        A7          D - D4
va cambiando de opinión.

          (vuelve a ser arpegiado)

       G              C           G   FILL2
La verdad está en la nación que tenemos, 
        C           A7            D  FILL3
para qué hace tanta falta otra señal, 
           G          D4/F#
si el malestar es de tantos 
       Em*
la protesta es la evidencia 
       C           A7          D
de lo sucio que no se quiere tapar, 
     F             C            D7,4
y si no ¿cómo se aprende a caminar?

    
            G             D/F#          Em   FILL1
Que onda entonces con la canción de protesta  
          C              A7              D  FILL3
la he buscado y me encontré esta conclusión: 
          C           B7
mientras diga lo que vea, 
          Em      
mientras tenga una opinión 
       C
que levante y que sostenga 
        D         FILL4
como aprendo a decir no.


        G               D4/F#           Em
Es natural que en este sitio y estos tiempos 
         C          D7,4        Em
que la protesta acompañe mi canción.

FINAL

D#--------------2-----------0-------------------------3------------3----|
G#----------------------------------------3------------------------2----|
C#--0-------------------------------0--------------------0---------0----|
F#---0--------------------------0---------5--5--5--2--------0------0----|
A#----0--1--0---3-----------------0---0---6--5--3--1--------0h1h0--0----|
d#------------------0---2---3-------0------------------------------3----|
                                       (al final se da un golpe en la    
                                        caja acústica de la guitarra)

ACORDES:
        D# G# C# F# A# D#
G    :  3  2  0  0  3  3
D    :  X  0  0  2  3  2
D4   :  X  0  0  2  3  3
D9   :  X  0  0  2  3  0
D7,4 :  X  0  0  2  1  3
D/F# :  2  0  0  2  3  2
D4/F#:  2  0  0  2  3  3
D9/F#:  2  0  0  2  3  0
Em   :  0  2  2  0  0  0 
Em*  :  0  2  2  0  0  3
C    :  3  3  2  0  1  0
C*   :  3  3  2  0  1  3
B7   :  2  2  4  2  4  2
F    :  1  3  3  2  1  1
A7   :  0  0  2  0  2  0 
A/C# :  0  4  2  2  2  0


Hasta luegooooooo!

Dudas, comentarios, peticiones, correcciones: >

            
            
Suggest correction
Creating personal tab
Creating personal tab
You can edit any tab online and save it as your Personal.

You can edit, replace or remove any tab part or add personal notes – all changes will be seen only by you.

Personal tabs can be accessed anytime from any device, even offline.
Learn more »
Give kudos to tab author, rate the tab!
1 2 3 4 5
comments
print report bad tab
guest
Wanna post a correction for this tab? Suggest correction