Oops, an error
Loading. Please wait.

Del Libro De Los Días tab

version 2
version 2

Whole song

13 views 1 this week
no commentswrite comment
1 2 3 4 5
3 more votes to show rating
add to favorites
×
Save as Personal and add changes to this tab that will be seen only by you. Learn more ›
×
You can save this tab as Personal to edit and correct it or add notes. All changes will be seen only by you. Learn more »
launch autoscroll
font size
0
reset
how to read this tab
guitar tuner
edit
Autoscroll
slow
fast
+/-
esc
set tempo
stop
Esta cancion la verdad me gusta mucho y ya estoy harto de que no exista
una tablatura previa de esta cancion, siempre la quize sacar asi que pues
aqui la tienen, esta correcta en muchos aspectos, pero no es perfecta
sin embargo de aqui sale porque sale jeje, esta transcripcion se la dedico
a mi amigo Edvi, porque cada vez que la oigo me acuerdo de lo sabio que es
y de los consejos recibidos, en fin, dice asi...

nota: es como la vewrsion del disco parque naucalli, y el final es
un tantito diferente, este lo escuche asi en un concierto y asi me
lo aprendi, pero si quieren el original no les llevara mucho sacarlo con
estas bases

e|------2---2---------------------------------
b|--3-2--20--03-2h3------3-----2-0------------
g|-2-2-2---0---2-----x2------------2-0-2--x2--
D|0----------------------0-2-4----------------
A|----0-------0-------------------------------
E|--------3----------------------3------------

                                   los sueños..
e|---------------------0-------2h0-----------------
b|-3-----2-0-----3-3-----3---------3-------3-----2-
g|-----------0-2-----0-------0-------2---2---4-2---
D|-0-2-4---------------------------0---------------
A|-------------------------0-----------4---2-------
E|---------3---2---0---------------------------2---


e|-------------0--------------------------0-2-----0---
b|---3---3-3-----3-0---3---3---2--------3-----0h1---1-
g|-0---0-----0-------0---0---0---0----2---------------
D|----------------------------------0-----------------
A|-------------0-----------0------------------0-------
E|-3---2---0-------3----------------------------------

el talento...

e|----------------------------2------------------------------0-2---3----
b|0---3---3---2---2---5---3-----3------0---3---3---3-------3-----3---3--
g|--0---0---0---0---2---2---4------------0---0---0---0---0--------------
D|----------------------------------------------------------------------
A|--------0---------------2---0------------------------0----------------
E|3---------------2--------------------0---2---3------------------------

LA concordia...

e|-3---2-----------------------2----------------------------0-2-----0---
b|---3---3-----3-------3---2-----2---0---3---3---2--------3-----0h1---1-
g|---------------0-------4---2---------0---0---0---0----2---------------
D|-0---------2-------4--------------------------------0-----------------
A|---------0-------2-------------------------0------------------0-------
E|-------------------------2---------3----------------------------------

e|----------------------------2----------------0---
b|0---3---3---2---2---5---3-----3----3-0-3-3-----3-
g|--0---0---0---0---2---2---4------0---------0-----
D|-------------------------------------------------
A|--------0---------------2---0----------------0---
E|3---------------2----------------3---2---0-------

e|------2---2-------
b|--3-2--20--03-2h3-
g|-2-2-2---0---2----
D|0-----------------
A|----0-------0-----
E|--------3---------

SI el animo...

e|-------------------0--------------2---0---2-----
b|----3---3---3-------------2h3-------3---3---3---
g|--2---2---0---0--0---3---2------2---------------
D|0-----------------------------0-----------------
A|--------3--------------0------------------------
E|----------------3-------------------------------

e|-----2---0---2-------2-------2--------------
b|-------3---3---0-------3-------3------------
g|---0---------------0-------0----------------
D|--------------------------------------------
A|-------------------------0------------------
E|-3---------------0--------------------------

e|------2---2-------
b|--3-2--20--03-2h3-
g|-2-2-2---0---2----
D|0-----------------
A|----0-------0-----
E|--------3---------

e|----------------
b|0---3---3---2---
g|--0---0---0---0-
D|----------------
A|--------0-------
E|3---------------

e|-2---0-2-3-----2h0-----0h1h0-----------------
b|---3---------3-----3---------3-----2h3-------
g|---------------------------------2-----------
D|-0-------------------------------------------
A|-----------3-------------------0-------------
E|---------------------3-----------------------

corona...

e|---------------------0-----------------------
b|-3-----2---3---3-3-----3-----3-------5-------
g|---4-2---0---0-----0-------2---2-----4-4-----
D|-4-----------------------0---------5---------
A|---------------------0-----------4-----------
E|-----2---3---2---0---------------------------


e|---------------------2----------------------
b|-----5---3---3---3-----3--------------------
g|-------2---4---4---4------------------------
D|--------------------------------------------
A|---4-----2-------0--------------------------
E|-2------------------------------------------

e|----------------
b|0---3---3---2---
g|--0---0---0---0-
D|----------------
A|--------0-------
E|3---------------

e|------------2--
b|2---5---3-----3
g|--2---2---4----
D|---------------
A|--------2---0--
E|2--------------

e|-----------------------0-2---3----
b|-0---3---3---3-------3-----3------
g|---0---0---0---0---0--------------
D|----------------------------------
A|-----------------0----------------
E|-0---2---3------------------------


si ya estan por aqui ya es medio camino XD


una palabra...

e|-----------------------------2---------------0-----
b|-----3-------3-------3---3-----3---3---3-3-----3---
g|---2---2---2---2-------4---4-----0---0-----0-------
D|-0-----------------4-------------------------------
A|---------4-------2-------0-------------------0-----
E|---------------------------------3---2---0---------

e|-------0-2--
b|-----3------
g|---2--------
D|-0----------
A|------------
E|------------

un abrazo..

e|-----------------------------2---------------0-----
b|-----3-------3-------3---3-----3---3---3-3-----3---
g|---2---2---2---2-------4---4-----0---0-----0-------
D|-0-----------------4-------------------------------
A|---------4-------2-------0-------------------0-----
E|---------------------------------3---2---0---------

e|-------0-2------------------------
b|-----3-------0---0-------5--------
g|---2-----------0---------4-4------
D|-0---------------------5----------
A|---------------------4------------
E|----------------------------------

e|------------2--
b|2---5---3-----3
g|--2---2---4----
D|---------------
A|--------2---0--
E|2--------------

-------------0---
---3---3-3-----3-
-0---0-----0-----
-----------------
-------------0---
-3---2---0-------

e|----------------------0--------------
b|-3-----2--0-----3-3-----3-----2h3----
g|------------0-2-----0-------2--------
D|-0-2-4-------------------------------
A|--------------------------0----------
E|----------3---2---0------------------

SI desgraciadamente...

(esto ya lo vimos, tiene la misma estructura entonces no tiene
 caso ponerlo de nuevo n_n)

ante la adversidad...

e|--------------------------------------0-------0-------
b|------3---2---3-------3---2---3---3-----3-3-----3-----
g|----0---0---0---0---0---0---0---0---0-------0---------
D|------------------------------------------------------
A|------------------------------------------------------
E|--3---------------2---------------0-------------------

                    es un libro...

e|---------------------------------------------------
b|-----3---2---3-------3---2---3-------3---2---3-----
g|---0---0---0---0---0---0---0---0---0---0---0---0---
D|---------------------------------------------------
A|---------------------------------------------------
E|-2---------------3---------------2-----------------


e|--0-2-0-------------------
b|--0-----0-3---2h3---------
g|------------2-------------
D|--------------------------
A|--2-------0---------------
E|--------------------------


el final...
(una vez mas misma estructura del principio, solo fijense en eso)


levanto...

e|-------------------------------------------
b|--3---3---3---3---3---3---3---3------------
g|----2---2---0---0---0---0---0-2------------
D|--0---------------------------2------------
A|------3---2---0---------------0------------
E|------------------3---2---0----------------

LA vida...

e|---------------------0-------2h0------2------
b|-3-----2-0-----3-3-----3---------3----3------
g|-----------0-2-----0-------0-------0--2------
D|-0-2-4--------------------------------0------
A|-------------------------0-------------------
E|---------3---2---0---------------------------

pues esto es todo, dudas o comentario o correcciones o invitaciones o
lo que se ofresca, les dejo mi correo elchaviz@

            
            
Suggest correction
Creating personal tab
Creating personal tab
You can edit any tab online and save it as your Personal.

You can edit, replace or remove any tab part or add personal notes – all changes will be seen only by you.

Personal tabs can be accessed anytime from any device, even offline.
Learn more »
Give kudos to tab author, rate the tab!
1 2 3 4 5
comments
print report bad tab
guest
Wanna post a correction for this tab? Suggest correction