Oops, an error
Loading. Please wait.

Extravío tab

version 2
version 2

Whole song

13 views 1 this week
no commentswrite comment
1 2 3 4 5
3 more votes to show rating
add to favorites
×
Save as Personal and add changes to this tab that will be seen only by you. Learn more ›
×
You can save this tab as Personal to edit and correct it or add notes. All changes will be seen only by you. Learn more »
launch autoscroll
font size
0
reset
how to read this tab
guitar tuner
edit
Autoscroll
slow
fast
+/-
esc
set tempo
stop
esta cancion esta muy sencilla,pero para todos los que extraviaron
algo o a alguien muy llegadora diria yo,recuerden que es dificil
tabular algo del maestro que esta cambiando constantemente,pero
chequen esto y veran que esta muy completo y preciso,esta
transcripcion se la dedico totalmente a mi amigo Ricardo Morales
Sol, al cual un buen dia extravie y nunca eh podido volver a ver,
si desde donde te encuentres tienen internet,sabras que este trabajo
es para ti,en fin, esta cancion va mas o menos asi

de aqui saque la tab:

la de extravio es la segunda parte

orden: intro,parte1 x2,parte2,parte 3,parte 1 x2,parte 2,parte 3 x4.

intro

e|---------0-7---------7-----------0---------2-------------------4---
B|-------0---9-9---9-------2h0-2-----4h2-4-----0---0---------5-----5-
G|-----1-----9---9---9---9-------2---------2-----------1---6---6-----
D|---2-------9-----------------2---------4-------2---2--2----6-------
A|-----------7-7-----------0---------2-------------2-----4-----------
E|-0-------------------------------------------0---------------------

e|---------2-------------------------------------------------------0---0
B|-2-----2---2-2-----5---4-------0h2---2h0---0h2-0-----0-0h2---------2--
G|---2-3---------2h4---4---4---2-----2-----2-------2---------2---2------
D|---------------------------------------------------2---------2--------
A|-------------0-----4-------0---------------0-----------0--------------
E|-2---------------------4----------------------------------------------

parte1

e|---------0-----------------------2---------0-------------4---2-------2--
B|-----0-----0-----2-0-2-------5-----4-----0---0-------5-----5-------2---2
G|-----1-----------2-2-2-2-----2-2-------1-------1---6---6-------2-3------
D|---2---2-------2-----------4-------------------------6------------------
A|-------------0-----------2-----------------------4----------------------
E|-0-----------------------------------0-----------------------2----------

                             parte2

e|---------------------2---|---------0-------------------------4---
B|-----2-0-2-------5-----4-|-----0-----0-----2-0-2-------5-----5---
G|-----2-2-2-2-----2-2-----|-----1-----------2-2-2-2-----2--4--4---
D|---2-----------4---------|---2---2-------2-----------4-----------
A|-0-----------2-----------|-------------0-----------2-------4-----
E|-------------------------|-0-----------------------------4-------

e|---------0-----------------------2--------------
B|-----0-----0-----2-0-2-------5-----4------------
G|-----1-----------2-2-2-2-----2-2----------------
D|---2---2-------2-----------4--------------------
A|-------------0-----------2----------------------
E|-0----------------------------------------------

parte3

e|------0-----0---------0---0-------0---0-------0---0---
B|------0h2---2h0-------5---5-------3---3-------5---5---
G|----2-----2-----2---4---4---4---2---2---2---4---4---4-
D|------------------------------------------------------
A|--0---------------------------------------------------
E|------------------4-----------2-----------4-----------

e|------0-----0---------0---0-------0---0-----------2---
B|------0h2---2h0-------5---5-------3---3-------4-----4-
G|----2-----2-----2---4---4---4---2---2---2-----4-------
D|--------------------------------------------4---4-----
A|--0---------------------------------------2-----------
E|------------------4-----------2-----------------------

            
            
Suggest correction
Creating personal tab
Creating personal tab
You can edit any tab online and save it as your Personal.

You can edit, replace or remove any tab part or add personal notes – all changes will be seen only by you.

Personal tabs can be accessed anytime from any device, even offline.
Learn more »
Give kudos to tab author, rate the tab!
1 2 3 4 5
comments
print report bad tab
guest
Wanna post a correction for this tab? Suggest correction