Oops, an error
Loading. Please wait.

La Bañera tab

version 3
version 3
8 views 1 this week
no commentswrite comment
1 2 3 4 5
3 more votes to show rating
add to favorites
×
Save as Personal and add changes to this tab that will be seen only by you. Learn more ›
×
You can save this tab as Personal to edit and correct it or add notes. All changes will be seen only by you. Learn more »
launch autoscroll
font size
0
reset
how to read this tab
guitar tuner
edit
Autoscroll
slow
fast
+/-
esc
set tempo
stop
Hola soy un chavo de 17 años que deseaba colaborar con una canción.
Esta es la version feb. 13. Ahi les va:		           

[intro]

E-------------------3-------------------------------------------------|
B----------------------------------3----------3-------3--------3------|
G----------0-----0--------------0----------2-------2--------0---------|
D-------0-----0-----0--------0-------0--0-----------------------------|
A----2--------------------3-------------------------------------------|
E-3--------------------0-------------------------2--------3-----------|


------------3---------------------------------------|
---------3--------------3-----3--------3--------3---|
------0--------------0--------------2--------2------|
------------0-----0--------0-----0------------------|
---2-----------3------------------------------------|
------------------------------------------2---------|


--------------------0-------0--------------------0--------------------|
-----3-3---(3)----3---3---3----0----0---------0h1-------1-----1-------|
---0-----(0)----------------------2---------0---------0-----0---------|
--------------------------------------2---2---------------2-----------|
----------------------------------------0----------(0)----------------|
-3--------------2-------1---------------------------------------------|


-----------------------------------------3--------3-------------------|
-----------3--0h1p0h1------3------3----3---3----3---0------0----------|
---------2--------------0-------0------------------------2------------|
-------0-------------------0---------------------------------2--------|
------------------------------------------------------0---------------|
-0h1h2------------------------3------2--------1-----------------------|


-----------0----------------------------------------------------------|
-------0h1-------0------1-------------3-------------------------------|
-----0---------0------0-------------2---------------------------------|
---2----------------2-------------0-----------------------------------|
-0-----------0--------------------------------------------------------|
----------------------------0h1h2---------0h1h2--0h1h2----------------|


[riff1]
-------3----------------------------------3h2-------------------------|
-----3------------3------------3-------3-------3----------------------|
---0------------0------------0-------0----0---------------------------|
-----------------------------------0----------------------------------|
----------0h1-2------0h1h2-3------------------------------------------|
-3----------------------------------------------------0h1h2-----------|


[riff2]

-------3-----------3-----------3---------------------------------------
-----3---3-------3---3-------3---0------0----------1-----------1-------
---0-------0---0-------0---0----------2----------0-----0-----0-----0---
------------------------------------------2----2-----2-----2-----2-----
------------------------------------0--------0-----------0-------------
-3-----------2------------1--------------------------------------------


 [fin/1]                    [fin/2] 
-------0-----------0------|-------0---------0-----|
-----3----3-----3---------|-----3---3-----3---3---|
---2----------2-----------|---2---------2---------|
-0----------0-------------|-0---------0-----------|
---------------------0h1h2|-----------------------|
--------------------------|-----------------------|

[fin/3]
-------0---------0---------|
-----3-----------3---------|
---2--------(2)------------|
-0-------(0)---------------|
---------------------------|
--------------------0h1h2--|


[end]
-------3----------------------------------------------------3----3----|
-----3------------3------------3-------3------------------3---3--3----|
---0------------0------------0-------0------------------0--------0----|
-----------------------------------0----------------------------------|
----------0h1-2------0h1h2-3------------------------------------------|
-3---------------------------------------0h1h2-0h1h2--3---------------|


///
   [intro]

   [rif1](´2 veces)
	 Te sorprendí a través del cristal de la bañera
cuando una puerta abierta me invitó a mirar la escena
de tu piel que entre las nubes de vapor 
se humedece y se despierta

El agua cae constante te recorre y busca el suelo
recuerdo que en la tarde era yo quien medía tu cuerpo
con la constancia de quien descubre eso que anda buscando
y aun así, (y aun así) y  aun así se da su tiempo


Y te miro a través del cristal de la bañera
  [rif2/1]
recoges el jabón y me concentro en tus caderas
                                                       [rif1]
lo pasa por tu piel tan dulcemente que le envidio su carrera


Tus gestos no se ven ni se ve el color de tus ojos
disueltos con vapor tus labios no llevan su tono usual de rojo
y el tono de tu piel siempre contra el de la pared
resulta en curvas contornos jabón y espuma el remedio para mi sed 
digo bien para mi ser


Te estoy mirando a través del cristal de la bañera
lo miro casi todo y todo lo que veo me ciega
    [rif2/2]
no te he llamado y tu en tu intimidad no te das cuenta
pensaba visitarte y tu tan bella e indispuesta
       [rif2/3]
que me decidí a marcharme pero no a cerrar la puerta
para verte cuando escribo no sea queeeeee
[rif1]
para verte cuando escribo no sea queeee..desaparezcaaaaas
[rif1]
[end]
----------------------------------------------------------------------
-La rola va con capo en el 2° traste
-las notas que van entre paréntesis casi no suenan
-h=hamer
-las '/' en el '[rif2]' simbolizan el fin del rif, ya que este solo se 
toca 3 veces en la canción y cada una tiene fin diferente.
-Al inicio se toca el intro y dos veces el '[rif1]', al tercero
comienza la letra.
-Esta muy bien la rola poero tengo mis dudas en 1 o 2 notas,si
encuantran algún error por fabor háganmelo saber al mail:
hockma@

Bueno creo que es todo, que la disfruten.

            
            
Suggest correction
Creating personal tab
Creating personal tab
You can edit any tab online and save it as your Personal.

You can edit, replace or remove any tab part or add personal notes – all changes will be seen only by you.

Personal tabs can be accessed anytime from any device, even offline.
Learn more »
Give kudos to tab author, rate the tab!
1 2 3 4 5
comments
print report bad tab
guest
Wanna post a correction for this tab? Suggest correction