Oops, an error
Loading. Please wait.

La Recuerdo Así tab

version 4
version 4

Whole song

7 views 1 this week
no commentswrite comment
1 2 3 4 5
3 more votes to show rating
add to favorites
×
Save as Personal and add changes to this tab that will be seen only by you. Learn more ›
×
You can save this tab as Personal to edit and correct it or add notes. All changes will be seen only by you. Learn more »
launch autoscroll
font size
0
reset
how to read this tab
guitar tuner
edit
Autoscroll
slow
fast
+/-
esc
set tempo
stop
Esta canción encierra muy bien lo que es el fin de una relación,
en una muy buena manera de resumir lo que ocurre.
¿Quien no ha pasado por esto:?

-||---------|---------|----------|----------|----------|------------|---------
-||---------|---------|----------|----------|----------|------------|---------
-||-0-------|-0-------|-0--------|-0--------|-0--------|-0----------|---------
-||---2---2-|---2---2-|---2----2-|---2-----2|---2-----2|---2-0----2-|---------
-||-----3---|-----2---|-------3--|----3---3-|-------3--|------------|---------
-||---------|---------|-----4----|------4---|-----3----|-------3p2--|---------
                                                                              
-------------|-------------|--------------------------------------------------
-------------|-------------|--------------------------------------------------
-0-----------|--------0----|--0----------------------------------------0------
---2-----2---|----2-0---2--|---------------------------------------------2--2-
-----3-----3-|-3----------3|-----------------------2h3-2-------------------3--
-------0-----|-2p0---------|--------------------------------------------------
                          Mejor la cama destendida que tu ausencia mi lado    

------------------------------------------------------------------------------
------------------------------------------------------------------------------
-0----------------------------------------------------------------------------
--------------------------------------2------0--------------------------------
------------2h3-2-------------------------3---------------2-------------------
------------------------------------------------------------------------------
  Mejor sus besos que tu nombre en mi boca     Y yo primavera y otono en      

------------------------------------------------------------------------------
----------------------------------0------------------------------------2------
------------------------------------------------------------------------------
-----------------0------------------------------------------------------------
--------------------2h3---------------------------------2---------------------
------------------------------------------------------------------------------
 menos de una hora mientras la conozco     se va uniendo a mi olvido          

------------------------------------------------------------------------------
------------------------------------------------------------------------------
-----------------------------------------------0------------------------------
-------------------------------------------------------------------2----------
-2h3---2-----------------------------------------3-------------2h3------------
-----0---------------------------------------------0--------------------------
 Esto es un tornillo     un espiral     un ciclo      esto de no tenerte      

------------------------------------------------------------------------------
----------------------2-------------------------------------------------------
--------------------------------0---------------------------------------------
----------------------------------2-----2p0-----------------------------2p0---
-----------------------------------2h3-2---------------------------2h3-2------
-------0----------------------------------------------------------------------
 y buscarte en pechos desconocidos               en un nombre que no          

------------------------------------------------------------------------------
------------------------------------------------------------------------------
------------------------------------------------------------------------------
--------------------------------------------2p0---------2p0-------------------
---------------------------------------2h3h2-------2h3h2----------------------
------------------------------------------------------------------------------
 recuerdo   en un viento en el que no vuelvo       es un punto mas a la       

------------------------------------------------------------------------------
------------------------------------------------------------------------------
-----------------------0------------------------0-----------------------------
-------------------------2------------------------0---------------------------
------------------------2-----------------*3--------3-------------------------
-----------------------------------------*0-----------0-----------------------
 lista de fracasos que guardo en el cajon          junto a tu recuerdo        

------------------||----------------------------------------------------------
------------------||----------------------------------------------------------
-0---------0------||----------------------------------------------------------
---2---2-0--------||----------------------------------------------------------
-----3------------||----------------------------------------------------------
------------------||----------------------------------------------------------
             ...                                                              

-||---------|-----------------------------------------------------------------
-||---------|-----------------------------------------------------------------
-||0--------|---4---4-0-----------4---4----------------0----------------------
-||--2p0----|-0---0-----2p0-----0---0-----------0----------------0------------
-||------3-2|---------------3-2-----------0---0-----*0-----0---0----*0--------
-||---------|---------------------------5---3-----*3-----5---3-----3----------
                                                                              

------------------------------------------------------------------------------
------------------------------------------------------------------------------
-0---------------0------------------0---------------------0-----------4---4---
---2p0-------0-----2p0---------0------2p0-------0-2---------2p0-----0---0-----
-----------0------------*0---0----0-----------0---2h3h2h3-------3-2-----------
-------3-2-----2-------2---0-----0--------2-0---------------------------------
                                                                              

------------------------------------------------------------------------------
-------------------------------------------------0----------2-----------------
-0-----------------------0----------------------------------------------------
---2p0---------------------2----*0-----------------0--------------------------
-------3-0-2-----------------3-2---------------------2------------------------
------------------------------------------------------------------3-----------
             La recuerdo asi        Como luz de dia que deslumbra en el       

------------------------------------------------------------------------------
------3--------------------0----------2------------3--------------------------
----------0---------------------------------------------0---------------------
-------0----2p0---------------0----------------------0----2p0-----------------
--------3-3---------------------3p0---------2---------3-3---------------------
----------------------------------------------3-------------------------------
 umbral         Como casa de munecas todo en su lugar      Con todo           

------------------------------------------------------------------------------
----0--------------0--------0---------------------------0-------------0-------
-----------------------------------0------------------------------------------
------0--------------0--------2--------------------------2--------------2-----
--------3p0------------2-------4/5-5-----------------------3--------------3---
-------------------------------------5-----0--------------------------------0-
 dispuesto para empezar a jugar           Tenia tantas ganas para empezar a   

------------------------------------------------------------------------------
------------------------------------------------------------------------------
---0-----------4---4--0-------------------------------------------------------
-----2p0-----0---0------2p0---------------------------------------------------
---------3-2----------------3-2-----------------------------------------------
------------------------------------------------------------------------------
 Jugar                                                                        

-||---------------------------------------------------------------------------
-||----------0---------------------0------------2------------3----------------
-||---------------------------------------------------------------0-----------
-||------------2-----0---------------0-------------------------0----2p0-------
-||-------------3-2--------------------2------------------------3-3-----------
-||-----------------------------------------------3---------------------------
 La recuerdo asi       como la promesa que le hice y no cumpli        No      

------------------------------------------------------------------------------
---------------0-------------2--------------3-------------------------0-------
--------------------------------------------------0---------------------------
----------------0-----------------------------0-----2p0-----------------0-----
-----------------3p0-----------2----------------3-3-----------------------3p0-
---------------------------------3--------------------------------------------
 importa este mundo en contra  me tienes a mi         pero cuando le hice     

------------------------------------------------------------------------------
--------0---------------------------------------0--------------0--------------
-----------------------0-------0----------------------------------------------
----------0--------------2------------------------2--------------2------------
------------2--------------4/5-5--------------------3--------------3----------
---------------------------------5-0---------------------------------0--------
 falta ya no estaba alli          Le hice tanta falta y ya no mencotraba      

----------------------------------3-------------------------------------------
----0---------0-----------------------------------0----------0----------------
------------------------------------------------------------------------------
-----0---------0--------------------2---2---2------0----------0---------------
------2h3---2----2h3---2--2-2-2-2-----2---2---2-2---2h3--2-----2h3--2---------
----------0----------0----3-2-0-2-----2---3---2---------0----------0----------
 alli                                                                         

------------------------------------------------------------------------------
------------------------------------------------------------------------------
-----------0------------4---4--0----------------------------------------------
-------------2p0------0---0------2p0------------------------------------------
-2-2-2-2-0-------3-2-----------------3-2--------------------------------------
-3-2-0------------------------------------------------------------------------
                                                                              

-||---------------------------------------------------------------------------
-||-------------------------------0----------2-------------3------------------
-||----------0---------------------------------------------------0------------
-||------------2----0------------------0---------------------0-----2p0--------
-||-------------3-2----------------------2---------------------3-3------------
-||-----------------------------------------------3---------------------------
 La recuerdo asi      me dijo no digas nada calla y no la oi                  

------------------------------------------------------------------------------
-----------------0------------2-------------3-----------------------0---------
-------------------------------------------------0----------------------------
-------------------0--------------------------0----2p0----------------0-------
---------------------3p0--------2--------------3-3----------------------------
----------------------------------3-------------------------------------------
 solo  queria un beso un dulce antes de partir            No queria que la    

------------------------------------------------------------------------------
----------0---------------------------------------0----------0----------------
------------------------0-------0---------------------------------------0-----
------------0-------------2-------------------------2-----------2---------2p0-
--3p0---------2-------------4/5-5---------------------3-----------3-----------
----------------------------------5-0-------------------------------0---------
 mirara llorar nuestro fin         No queria que la mirara llorar este fin    

------------------------------------------------------------------------------
------------------------------------------------------------------------------
--------4---4-0---------------------------------------------------------------
------0---0-----2p0-----------------------------------------------------------
--3-2---------------3-2-------------------------------------------------------
------------------------------------------------------------------------------
                                                                              

-||---------------------------------------------------------------------------
-||--------------------------------------------0-----------2------------------
-||----------------0----------------------------------------------------------
-||------------------2-----0---------------------0----------------------------
-||--------------------3-2-------------------------2--------------------------
-||----------------------------------------------------------3----------------
     La recuerdo asi           con el nudo en la garganta y ganas de          

------------------------------------------------------------------------------
-----3----------------0-------------------2-----------------------------------
----------0-------------------------------------------------------------------
-------0----2p0---------0------------------*0---------------------------------
--------3-3---------------3p0-----------------2-----2h3-----------------------
------------------------------------------------3p2-----0---------------------
 mentir         y decirme todo va estar bien                si tu no estas    

------------------------------------------------------------------------------
------3------------------------0--------------0-------------------------------
-----------3--------------------------------------------0-------0-------------
--------0----2p0-----------------0--------------0---------2-------------------
---------3-3-----------------------3p0------------2---------4/5-5-------------
------------------------------------------------------------------5-0---------
 aaaqui          no soy la primera y no eres elultimo asi           No soy    

----------------------------------------------------------------3-------------
--------0------------0----------0-----------0---------------------------------
------------------------------------------------------------------------------
----------2------------2----------0-----------0-------------------2---2---2---
------------3------------3----------2h3---2-----2h3---2-2-2-2-2-----2---2---2-
---------------------------0------------0-----------0---3-2-0-2-----2---3---2-
 la primera y noeres elultimo asi                                             

------------------------------------------------------------------------------
---0-----------0---------------------------------------0--------------0-------
-------------------------------------0--------------------------------2-------
-----0-----------0---------------------2---2-----2---2----------------2-------
-2-----2h3---2-----2h3---2-2-2-2-2-2-----3-----3----3----0-0-0--0-5-2-2-------
-----------0-----------0---3-2-0-------------0-----0-------3-0--0-5-2---------
                                                                              
NOTA: Las notas que estan marcadas con un ' * ', se deben tocar muy suave o si 
se desea, omitirlas, ya que en la version de estudio casi no se oyen.
Recuerda que la tienes que ir escuchando para llevar bien los tiempos.

            
            
Suggest correction
Creating personal tab
Creating personal tab
You can edit any tab online and save it as your Personal.

You can edit, replace or remove any tab part or add personal notes – all changes will be seen only by you.

Personal tabs can be accessed anytime from any device, even offline.
Learn more »
Give kudos to tab author, rate the tab!
1 2 3 4 5
comments
print report bad tab
guest
Wanna post a correction for this tab? Suggest correction