Oops, an error
Loading. Please wait.

Soñando El Camino tab

version 3
version 3

Whole song

7 views 1 this week
no commentswrite comment
1 2 3 4 5
3 more votes to show rating
add to favorites
×
Save as Personal and add changes to this tab that will be seen only by you. Learn more ›
×
You can save this tab as Personal to edit and correct it or add notes. All changes will be seen only by you. Learn more »
launch autoscroll
font size
0
reset
how to read this tab
guitar tuner
edit
Autoscroll
slow
fast
+/-
esc
set tempo
stop

|-------------------------------------------------------------------------------------------|
|------1-----1-----1-----1--------------1-----1-----1-----1-------------1-----1-----1-----1-|
|----3-----2-----0-----2------3---3---3-----2-----0-----2-----3---3---3-----2-----0-----0---|
|--3-----3-----3-----3------3---3---3-----3-----3-----3-----3---3---3-----3-----3-----3-----|
|-------------------------------------------------------------------------------------------|
|-------------------------------------------------------------------------------------------|

          RIFF 1----------------------------------------------------------|
          C              Em           Am                                  C        Em
|------------------------1------------1---------(3)----------------------------0---0--------|
|--------------3-----3------3------3-----------0^1^0---0------1-----1-------3----3---3----3-|
|---0---0----0---0-0-------------0----------2--------2------2-----0-----0---------------0---|
|-2---0------------------------2----------2---------------3-----2-----0---------------------|
|---------3---------------------------0-----------------------------------3-----------------|
|------------------------0---------------------------------------------------------0--------|

  Am                F      G      C
|-0-------(3)---------------------------0--|
|--------0^1^0---0------1------0----1------|
|-----2--------2------2------0--------0----|
|---2--------------------------------------|
|-0-------------------------------3--------|
|-------------------1------3---------------|


C                   G                  Am
Hace días que el camino va tirando más lejos           FILL 1
                FILL 1                C                |---------------------|
lejos de las colinas y esos solares viejos             |------1-----1--------|
                Em                       Am            |----2-----0-----0----|
que me son familiares y que aprendí a querer           |--3-----2-----0------|
                FILL 1                 C (RIFF 1)      |------------------3--|
como quiero y conozco todo lo que se fue               |---------------------|


C                G                     Am
Hace días te contaba que me alejo y respiro
                    FILL 1                   C
flores de otros jardines, polvos de otros caminos
                   Em                  Am
que me observan lugares y gente que jamás
                  FILL 1                   C (RIFF 1)
se acordó de los tantos que nos siguen detrás

C              Em                    Am
Hace tardes enteras que se asoma la noche                                       FILL 2
               Am/G                  F                                      |------------|
entre malos presagios y negros nubarrones                                   |-0^1^0---0--|
                  F                      C                                  |-------2----|
que cuelgan del cielo y me esconden del sol                                 |------------|
               Am  FILL 2      FILL 1                   C (RIFF 1)          |------------|
y me dejan pensar...............que soy yo el que no estoy                  |------------|

C                 G                      Am
Hace días que tropiezo y me aferro a la marcha
                  FILL 1               C
bajo el rayo del sol y el fresco de la escarcha
                       Em                Am
sé que hay cosas que quedan y cosas que pasan
                   FILL 1                   C (RIFF 1)
y entre cosas que pienso pienso en volver....... a casa


C               G                  Am
Hace ya tantos días que la luna lejana
                      FILL 1                   C
se ha colocado en el cielo desde horas más tempranas
               Em                 Am
y su luz de satélite antiguo y distante
                   FILL 1             C  (RIFF 1) 
me ilumina en las noches de camino menguante

C                  Em                  Am
De hace tiempo no puedo calmarme estas ancias
               Am/G                     F
que me dejó un amor que ocultan las distancias
              F                C
pero nada me dice que sigue delante
                     Em                  Am
si el lugar que busqué o el fin del caminante
                FILL 1                 C (RIFF 1 x 2)
que de tanto andar se perdió en el paisaje
                                        RIFF 1
y de lejos se ve...continuando su viaje

C                G                      Am
La canción compañera, mi guitarra y bastón
                   FILL 1            C
sueños que se perdieron clamando perdón
                      Em                  Am
que antes de irse olvidando se atan a mí si no
                  FILL1              C       (RIFF 1)
y me mueron a lo lejos estos días de camino

C                 G                    Am
Hace más de cien veces cien que no te miro
                   FILL 1                C
que lo único que alivia el dolor son suspiros
                     Em                       Am
que he olvidado los rostros de aquellos que quiero
                   FILL 1              C
y no alcanza el dolor no todo el desespero
                 Em                Am
y me inundan los ojos gruesos goterones
            FILL 1            C
y se van a volar las imaginaciones
                Em                    Am
de vuelta al pasado más siempre me alcanzan 
              FILL 1               C
soñando el camino...para volver a casa
               Em                  Am   FILL 1
para volver a casa, para volver a casa

RIFF 1 (este último riff cambia al final y termina en C)

Está completa, sólo en algunos lugares pueden no quedar los acordes con la letra, ah, y también algunos "FILL 1" se cambian por:

   F     G        C
|--------------------|
|------1-----0-------|
|----2-----0---0-----|
|--------------------|
|-----------------3--|
|--1-----3-----------|

^= hamer on

ACORDES:

C: x32010
Em:022000
Am:x02210
G: 320003
F: 133211
Suggest correction
Creating personal tab
Creating personal tab
You can edit any tab online and save it as your Personal.

You can edit, replace or remove any tab part or add personal notes – all changes will be seen only by you.

Personal tabs can be accessed anytime from any device, even offline.
Learn more »
Give kudos to tab author, rate the tab!
1 2 3 4 5
comments
print report bad tab
guest
Wanna post a correction for this tab? Suggest correction