Oops, an error
Loading. Please wait.

Soñando El Camino tab

version 4
version 4

Whole song

16 views 1 this week
no commentswrite comment
1 2 3 4 5
3 more votes to show rating
add to favorites
×
Save as Personal and add changes to this tab that will be seen only by you. Learn more ›
×
You can save this tab as Personal to edit and correct it or add notes. All changes will be seen only by you. Learn more »
launch autoscroll
font size
0
reset
how to read this tab
guitar tuner
edit
Autoscroll
slow
fast
+/-
esc
set tempo
stop
Dedicado a ese amor que el tiempo y la distancia (sobre todo la
distancia ahora mas que nunca)ocultan
1/Marzo/2005

Introducción:


1e-----------------------------------------------------------------
2B-----1-----1-----1-----1-------------1-----1-----1-----1---------
3G---3-----2-----0-----2-----3---3---3-----2-----0-----2-----3---3-
4D-3-----3-----3-----3-----3?--3---3-----3-----3-----3-----3?--3---
5A-----------------------------------------------------------------
6E-----------------------------------------------------------------


1e---------------------------------
2B-----1-----1-----1-----1---------
3G---3-----2-----0-----0-----0---0-
4D-3-----3-----3-----3-----2---0---
5A---------------------------------
6E---------------------------------


1e---------------0---------0---0-----------------------------------
2B-----3-----3-------3-------3-------1---1p0-----1-----1-----1-----
3G---0---0-0-------------0---------2---2-----2-------2-----0-----0-
4D-----------------2---2-----------------------2---3-----2-----0---
5A-3-----------3-----------------0---------------------------------
6E---------------0-------------0-----------------------------------


1e---------0-----0---------------0------------------------------------
2B-----3-----3-------3-------3---------1----1p0-----1-----1-----0-----
3G---0-----------------0---0---0-----2---2------2-------2-----0-----0-
4D-----------------------0------------------------2-------------------
5A-3-----3-----3-------------------0------------------------------2---
6E-----------------0-------------0--------------------1-----3---------

Estrofa 1

1e---------------0---------0---0---------0-----------------------
2B-----3-----3-------3-------3-------1-------1-------1-----1-----
3G---0-----0---0-------0-----------2---2---2-------2-----0-----0-
4D-------2---------------2-----------------------3-----2-----0---
5A-3-----------------------------0-------------0-----------------
6E-----------------3---------------------------------------------

        Hace días que el camino...

1e-------0-------0-------0---0---------0-----------------------
2B-----3---3-------3-------3-------1-------1-------3-----1-----
3G---0-------0---------0---------2---2---2-------3-----2-----0-
4D-------------------------------------------------------------
5A-3---------------------------0-------------0-1-----------2---
6E-------------0-----0-------------------------------1---------


1e-------0------0------------0-----------------------------------
2B-----3---3------3------3---------1---1p0-----1-----1-----1-----
3G---0------0----------0---0-----2---2-----2-------2-----0-----0-
4D-------------------------------------------2---3-----2-----0---
5A-3----------------3----------0---------------------------------
6E------------0--------------------------------------------------

Estrofa 2

1e-----------------------0-----0---------0-----------------------
2B-------3-------------3---3---------1-------1-------1-----1-----
3G-----0---0---------0-------0-----2---2---2-------2-----0-----0-
4D---2-------2-----2-----------------------------3-----2-----0---
5A-3-----------3-----------------0-------------0-----------------
6E---------------3-----------3-----------------------------------

   Hace días te contaba...

1e-------0-------0-------0---0---------0-----------------------
2B-----3---3-------3-------3-------1-------1-------1-----0-----
3G---0-------0---------0---------2---2---2---2---2-----0-----0-
4D-------------------------------------------------------------
5A-3-----------------3---------0---------------------------2---
6E-------------0-------------------------------1-----3---------


1e-------0------0------------0-----------------------------------
2B-----3---3------3------3---------1---1p0-----1-----1-----1-----
3G---0------0----------0---0-----2---2-----2-------2-----0-----0-
4D-------------------------------------------2---3-----2-----0---
5A-3----------3-----3----------0---------------------------------
6E--------------0------------0-----------------------------------

Estrofa 3

1e-----------------------0------------0-----------0-----------1-----1-
2B-------3-------------3?-3-------1-------------1---1-------1---1-----
3G-----0---0---------0----------2---2---2-----2-----------2-------2---
4D---2-------2-----0--------------------------------------------------
5A-3-----------3-2----------2-0-----------0---------------------------
6E------------------------------------------3---------3-1-------------

       Hace tardes enteras...

1e-----1-----------0---------------------------------------
2B-------1-------3---3-------1---1p0-----1-----1-----1-----
3G---1-----1---0-----------2---2-----2-------2-----0-----0-
4D-3-----------------------------------2---3-----2-----0---
5A-----------3---------2-0---------------------------------
6E---------------------------------------------------------


1e-------0-------0-----------0--------------------------------
2B-----3---3-------3-----3---------1----1p0-------1-----0-----
3G---0-------0---------0---0-----2---2------2---2-----0-----0-
4D------------------------------------------------------------
5A-3-----------3-----3---------0--------------------------2---
6E---------------0-----------0----------------1-----3---------

Estrofa 4

1e-----------------------0-----3---------0-----------------------
2B-------3-------------3---3---------1-------1-------1-----1-----
3G-----0---0---------0-------0-----2---2---2-------2-----0-----0-
4D---2-------2-----2-----------------------------3-----2-----0---
5A-3-----------3---------------2-0-------------0-----------------
6E---------------3-----------------------------------------------

     Hace días que tropiezo...

1e-------0-------0-------0---0---------0-----------------------
2B-----3---3-------3-------3-------1-------1-------1-----1-----
3G---0-------0---------0---------2---2---2-------2-----0-----0-
4D---------------------------------------------3-----2-----0---
5A-3-----------------0-------2-0-------------0-----------------
6E-------------0-----------------------------------------------


1e-------0-------0-----------0--------------------------------
2B-----3---3-------3-----3---------1----1p0-------1-----1-----
3G---0-------0---------0---0-----2---2------2---2-----0-----0-
4D--------------------------------------------3-----2-----0---
5A-3-----------3-----3---------0------------------------------
6E---------------0--------------------------------------------

Estrofa 5

1e-------0-------0-----------0---------0-----------------------
2B-----3---3-------3-----3---------1-------1-------1-----0-----
3G---0-------0---------0---0-----2---2---2-------2-----0-----0-
4D-------------------------------------------------------------
5A-3-----------------3-------2-0-------------2-------------2---
6E-------------3-------------------------------1-----3---------

    Hace ya tantos días...

1e-------0-------0-----0---0---------0-----------------------------0-----
2B-----3---3-------3-----3-------1-------1-------3-----1---------3---3---
3G---0-------0-------0---------2---2---2---2---0-----2-----0---0-------0-
4D-----------------------------------------------------------------------
5A-3-------------------------0---------------3---------------3-----------
6E-------------0-0---------------------------------1-----3---------------


1e---0-----------0-----------------------------------
2B-----3-----3---------1---1p0-----1------1-----1----
3G---------0---0-----2---2-----2-------2-----0-----0-
4D-------------------------------2---3-----2-----0---
5A-------3---------0---------------------------------
6E-0-0-----------------------------------------------

Estrofa 6

1e-----------------------0-------------0-----------0-----------1-----1-
2B-------3-------------3?--3-------1-------------1---1-------1---1-----
3G-----0---0---------0-----------2---2---2-----2-----------2-------2---
4D---2-------2-----0---------------------------------------------------
5A-3-----------3-2-----------2-0-----------0---------------------------
6E-------------------------------------------3---------3-1-------------

       De hace tiempo no puedo...

1e-----1-----------0---------------0-------------0---------------------
2B-------1-------3---3---------1-------------1-------------1-----1-----
3G---1-----1---0-------0-----2---2---2-----2---2---2-----2-----0-----0-
4D-3---------------------------------------------------3-----2-----0---
5A-----------3-----------3-2-----------0-0-----------0-----------------
6E---------------------------------------------------------------------


1e-------0-------0-----0---0-------------------------------------
2B-----3---3-------3-----3-------1---1 P 0-----1-----1-----1-----
3G---0-------0-------0---------2---2-------2-------2-----0-----0-
4D-------------------------------------------2---3-----2-----0---
5A-3-----------3-----------2-0-----------------------------------
6E---------------0-----------------------------------------------


1e-------0------0------------0-------------------------------
2B-----3---3------3------3---------1---1p0-------1-----1-----
3G---0------0----------0---0-----2---2-----2---2-----0-----0-
4D-------------------------------------------3-----2-----0---
5A-3----------------3----------0-----------------------------
6E------------0----------------------------------------------


1e-------0-------0-----------0-------------------------------
2B-----3---3-------3-----3---------1---1p0-------1-----0-----
3G---0-------0---------0---0-----2---2-----2---2-----0-----0-
4D-------------------------------------------------------0---
5A-3-----------3-----3-------2-0-----------------------------
6E---------------0---------------------------1-----3---------

Estrofa 7

1e-----------------------0-----0---------0-----------------------
2B-------3-------------3---3---------1-------1-------1-----1-----
3G-----0---0---------0-------0-----2---2---2-------2-----0-----0-
4D---2-------2-----2-----------------------------3-----2-----0---
5A-3-----------3---------------2-0-------------0-----------------
6E---------------3-----------------------------------------------

     La canción compañera...

1e-------0-------0-----0---0---------0-----------------------
2B-----3---3-------3-----3-------1-------1-------3-----1-----
3G---0-------0-------0---------2---2---2---2---0-----2-----0-
4D-----------------------------------------------------------
5A-3-----------3-----------2-0---------------3-----------2---
6E---------------0---------------------------------1---------


1e-------0-------0-----------0-----------------------------------
2B-----3---3-------3-----3---------1---1p0-----1-----1-----1-----
3G---0-------0---------0---0-----2---2-----2-------2-----0-----0-
4D-------------------------------------------2---3-----2-----0---
5A-3-----------------3-------2-0---------------------------------
6E-------------0-------------------------------------------------

Estrofa 8

1e-----------------------0-----0---------0------------------------
2B-------3-------------3---3---------1-------1--------1-----0-----
3G-----0---0---------0-------0-----2---2---2---2----2-----0-----0-
4D---2-------2-----2------------------------------------------0---
5A-3-----------3---------------2-0--------------------------------
6E---------------3--------------------------------1-----3---------

      Hace mas de cien veces...

1e-------0-------0-----------0---------0-----------------------
2B-----3---3-------3-----3---------1-------1-------1-----1-----
3G---0-------0---------0---0-----2---2---2-------2-----0-----0-
4D---------------------------------------------3-----2-----0---
5A-3-----------------3---------0-------------0-----------------
6E-------------0-----------------------------------------------


1e-----------------------0-----0---------0-----------------------
2B-------3-------------3---3---------1-------1-------1-----0-----
3G-----0---0---------0-------0-----2---2---2---2---2-----0-----0-
4D---2-------2-----2-----------------------------------------0---
5A-3-----------3---------------2-0-------------------------------
6E---------------3-------------------------------1-----3---------

      Y me inundan los ojos...

1e-------0-------0-----------0---------0-----------------------
2B-----3---3-------3-----3---------1-------1-------1-----1-----
3G---0-------0---------0---0-----2---2---2-------2-----0-----0-
4D---------------------------------------------3-----2-----0---
5A-3-----------------3---------0-------------0-----------------
6E-------------0-----------------------------------------------


1e-----------------------0-------------0---------------0-----------------
2B-----1-----0---------3---3---------3---3---------1-------------1-----0-
3G---2-----0-----0---0-------0-----0-------0-----2---2---2-----2-----0---
4D-----------------------------------------------------------------------
5A-------------2---3-----------3-2-----------2-0-------------------------
6E-1-----3-------------------------------------------------0-1-----3-----

    Para volver a casa...

1e------------0-------0-----------0---------0-------------------------0-
2B----------3---3-------3-----3---------1-------1-------1-----1-------1-
3G----0---0-------0---------0---0-----2---2---2-------2-----0-----0---0-
4D--0-----------------------------------------------3-----2-----2---3-2-
5A------3-----------3-----3-------2-0-------------0-------------------3-
6E--------------------0-----------------------------------------------3-

            
            
Suggest correction
Creating personal tab
Creating personal tab
You can edit any tab online and save it as your Personal.

You can edit, replace or remove any tab part or add personal notes – all changes will be seen only by you.

Personal tabs can be accessed anytime from any device, even offline.
Learn more »
Give kudos to tab author, rate the tab!
1 2 3 4 5
comments
print report bad tab
guest
Wanna post a correction for this tab? Suggest correction