Oops, an error
Loading. Please wait.

Nadie Más tab

version 2
version 2

Whole song

20 views 3 this week
no commentswrite comment
1 2 3 4 5
3 more votes to show rating
add to favorites
×
Save as Personal and add changes to this tab that will be seen only by you. Learn more ›
×
You can save this tab as Personal to edit and correct it or add notes. All changes will be seen only by you. Learn more »
launch autoscroll
font size
0
reset
how to read this tab
guitar tuner
edit
Autoscroll
slow
fast
+/-
esc
set tempo
stop
Afinación: Drop D
Cejillo: Tercer Espacio

INTRO:

e-|-----| |-------|
B-|--3--| |-3-3-3-|
G-|---2-| |--2---2|x6
D-|-0---| |0---0--|
A-|-----| |-------|
D-|-----| |-------|


e-|----------------------------------------------------------|
B-|-3-3/8--5------5--5--3------3--3--3------3------3------3--|
G-|--2---7--6---6--6--6--4---4--4--4--2---2--2---2--2---2--2-|x2
D-|0------0--0-0-0--0--0--0-0-0--0--0--0-0-0--0-0-0--0-0-0--0|
A-|----------------------------------------------------------|
D-|----------------------------------------------------------|
 (Se repite con la diferencia que en la segunda vez se tocan
  la segunda y tercera cuerda al mismo tiempo en vez de arpegiarlas)


e-|-------------------------------------|
B-|---------------------3----3------3---|
G-|-----2--2---2---2----2--2--2---2-----|x3
D-|----0--0-0-0-0-0-0---0-0-0--0-0-0----|
A-|-0h4--4---4---4----------------------|
D-|-------------------0-----------------|


Luego se repite el intro con la diferencia que se toca la ultima cuerda
alternada con la cuarta
e-|--------------------------------------------------------------------------|
B-|-3--3/8----5-------5----5-----3--------3----3----3-------3--------3-------|
G-|--2-2/7-7--6-6---6-6--6-6--6--4--4---4-4--4-4--4-2-2---2-2--2---2-2--2----|
D-|---------0----0---0----0----0-----0---0----0----0---0---0----0---0----0---|
A-|--------------------------------------------------------------------------|
D-|0---------------0----0----0---------0----0----0-------0----0---0----0-----|
           Dame tiempo......

Se repite esta melodía a lo largo de toda la canción hasta la parte:

    "Nadie Mas... Nadie mas, quien mas"

e-|--------x-----------x--------|
B-|--------3-----------3--------|
G-|--------2-----------2--------|
D-|--------0-------4---0--------|
A-|--0-4-5-0-0-4-5---5-0--------|
D-|--------0-----------0--------|

Instrumental:

e-|---------------|
B-|----3----------|
G-|-2----2--------|
D-|--0----0-------|(se repite)
A-|---------------|
D-|0----0---------|


Eso es principalmente la canción la gracia es ir cambiando un poco los arpegios
para darle más originalidad y no tocar toda la canción al pie de la letra

Saludos!

            
            
Suggest correction
Creating personal tab
Creating personal tab
You can edit any tab online and save it as your Personal.

You can edit, replace or remove any tab part or add personal notes – all changes will be seen only by you.

Personal tabs can be accessed anytime from any device, even offline.
Learn more »
Give kudos to tab author, rate the tab!
1 2 3 4 5
comments
print report bad tab
guest
Wanna post a correction for this tab? Suggest correction