Oops, an error
Loading. Please wait.

Río tab

version 2
version 2

Whole song

83 views 1 this week
no commentswrite comment
1 2 3 4 5
3 more votes to show rating
add to favorites
×
Save as Personal and add changes to this tab that will be seen only by you. Learn more ›
×
You can save this tab as Personal to edit and correct it or add notes. All changes will be seen only by you. Learn more »
launch autoscroll
font size
0
reset
how to read this tab
guitar tuner
edit
Autoscroll
slow
fast
+/-
esc
set tempo
stop
Afinación Estándar ( E A D G B E )
Acordes al final de la lista

_______________

Intro
      A#                                               4x
E||--------------------------|-------------------------||
B||------------3-------------|----------3--------------||
G||*--------3-------3-----3--|-------3-------3-----3--*||
D||*-------------------3-----|------------------3-----*||
A||---1----------------------|--1----------------------||
E||--------------------------|-------------------------||

___________________


Parte 1
                                A#         A#/A
E||----------------------------|------------------------|
B||--------------3-------------|----------3----------3--|
G||*----------3-------3-----3--|-------3----------3-----|
D||*---------------------3-----|------------------------|
A||---1------------------------|--1----------0----------|
E||----------------------------|------------------------|


  Gm                                              4x
------------------------|-------------------------||
----------3-------------|----------3--------------||
-------3-------3-----3--|-------3-------3-----3--*||
------------------0-----|------------------0-----*||
------------------------|-------------------------||
--3---------------------|--3----------------------||

_____________________


Parte 2

    A#/D#
E||---------------------------|------------------------|
B||-------------3-------------|----------3-------------|
G||----------3-------3-----3--|-------3-------3-----3--|
D||--1------------------1-----|--1---------------1-----|
A||---------------------------|------------------------|
E||---------------------------|------------------------|


  Gm
------------------------|------------------------|
----------3-------------|----------3-------------|
-------3-------3-----3--|-------3-------3-----3--|
------------------0-----|------------------0-----|
------------------------|------------------------|
--3---------------------|--3---------------------|


  A#/D#
-------------------------|------------------------|
-----------3-------------|----------3-------------|
--------3-------3-----3--|-------3-------3-----3--|
--1----------------1-----|--1---------------1-----|
-------------------------|------------------------|
-------------------------|------------------------|


                           A#/F
------------------------|------------------------||
----------3-------------|----------3-------------||
-------3-------3-----3--|-------3-------3-----3--||
------------------0-----|------------------0-----||
------------------------|------------------------||
--3---------------------|--1---------------------||

________________________________________________

Letra:

Río

(Intro)

(Parte 1)
Alza la frente
siguiendo el río
guarda la fuerza
queda tanto que andar

(Parte 2)
ya no quieres descansar
rabia entre los dientes
ya no puedes disparar
para defenderte


(Parte 1)
hay un río
que te guiará
hay un río
que te guiará

(Parte 2)
a llegar donde dijiste
que ibas a llegar
y cumplir todo lo que
ibas a cumplir?

(Parte 1)
Aaah, aah, aaah aaah
Aaah, aah, aaah aaah

(Parte 2)
es hora de correr
son tantos a tu espalda
tiran de la ropa
y el suelo es tan frío

(Parte 2)
creo que no podré llegar hoy
no se si mañana, talvez
creo que no podré llegar hoy
no se si mañana, talvez

(Parte 2) Ending...

_________________________________________

Tambien rasguea a veces en algunas estrofas de la canción,
es más libre en ese sentido

Acordes:

        E A D G B E
A#    = x 1 3 3 3 x
A#/A  = x 0 3 3 3 x
Gm    = 3 x 0 3 3 x
A#/D# = x x 1 3 3 x
A#/F  = 1 x 0 3 3 x

            
            
Suggest correction
Creating personal tab
Creating personal tab
You can edit any tab online and save it as your Personal.

You can edit, replace or remove any tab part or add personal notes – all changes will be seen only by you.

Personal tabs can be accessed anytime from any device, even offline.
Learn more »
Give kudos to tab author, rate the tab!
1 2 3 4 5
comments
print report bad tab
guest
Wanna post a correction for this tab? Suggest correction