Oops, an error
Loading. Please wait.

Königreich tab

by Tanzwut
62 views 1 this week
no commentswrite comment
1 2 3 4 5
3 more votes to show rating
add to favorites
×
Save as Personal and add changes to this tab that will be seen only by you. Learn more ›
×
You can save this tab as Personal to edit and correct it or add notes. All changes will be seen only by you. Learn more »
launch autoscroll
font size
0
reset
how to read this tab
guitar tuner
edit
Autoscroll
slow
fast
+/-
esc
set tempo
stop
Author
          Tanzwut
       - Königreich -
          Tanzwut

      tabbed by PelzR

Now we have the song called "Königreich" (in english: "Kingdom") from the debut album "Tanzwut".
It's a basic tab but it should contain everything that is needed to play. I didn't write a song structure.
The song isn't complicated, so I thing this shouldn't be a problem. This is for the studio version, but you
can use it for the live version too.


Tuning: Standard E (E A D G B E)
BPM: 163


Description:
------------
X  - dead note
.  - palm mute
() - let ring

W  - whole note
Q  - quarter note
E  - eighth note
S  - sixth note
R  - rest


Riffs:
------

Riff 1
         
   Q  E E E E E E    E  Q  E E E E E                       
E|----------------|------------------|
B|----------------|------------------| the last verse
G|----------------|------------------| contains additional
D|-2--X-2-4-2-X-5-|-(5)-2--2-4-2-4-5-| harmonics
A|-0--X-0-2-0-X-3-|-(3)-0--0-2-0-2-3-|
E|----------------|------------------|
    

Chorus 1
  
   W   W   W   W
E|---|---|---|---|
B|---|---|---|---|
G|-2-|-5-|-2-|-7-|
D|-2-|-5-|-2-|-7-|
A|-0-|-3-|-0-|-5-|
E|---|---|---|---|


Chorus 2

   Q  E E Q  E E   Q  E E Q  E E   Q  E E Q  E E   Q  E E Q  E E
E|---------------|---------------|---------------|---------------|
B|---------------|---------------|---------------|---------------|
G|-2------2------|-5------5------|-2------2------|-7------7------|
D|-2------2------|-5------5------|-2------2------|-7------7------|
A|-0--0-0-0--0-0-|-3--3-3-3--3-3-|-0--0-0-0--0-0-|-5--5-5-5--5-5-|
E|---------------|---------------|---------------|---------------|
      . .    . .      . .    . .      . .    . .      . .    . .


Bagpipes Main

   Q.  E  E  Q  E     E   Q  E  E  E  E  E
E|----------------|------------------------|
B|-10-10-12-10-13-|-(13)-10-10-12-10-12-13-|
G|----------------|------------------------|
D|----------------|------------------------|
A|----------------|------------------------|
E|----------------|------------------------|


Bagpipes Verse (quite in the background)
 
    E Q  E  E  S  S  E  E
E|------------------------|
B|-10-R--8-10-10-10-10-12-| in the first verse
G|------------------------| this is combined with
D|------------------------| the first bar from 
A|------------------------| 'Bagpipes Main'
E|------------------------|


Bagpipes Chorus

    E  E E  E  E  E E  E    E  E E  E  E  E E  E
E|-----------------------|--------------------12-|
B|-10-10-R-10-13-10-R-10-|-15-10-R-10-13-10-R----|
G|-----------------------|-----------------------|
D|-----------------------|-----------------------|
A|-----------------------|-----------------------|
E|-----------------------|-----------------------|


Bagpipes Solo

    E  Q   E  E  S  S  E  S  S    E  Q   E  E  S  S  Q    E  Q   E  E  S  S  E  E    S  S  E  E  E  E  E  E  E
E|-----------------------------|-12--------------------|--------------------------|----------------------------|
B|-10-10--10-13-12-13-15-13-15-|----10--10-13-12-13-15-|-10-10--10-13-12-13-15-15-|-12-13-12-10----10-12-13-15-|
G|-----------------------------|-----------------------|--------------------------|-------------12-------------|
D|-----------------------------|-----------------------|--------------------------|----------------------------|
A|-----------------------------|-----------------------|--------------------------|----------------------------|
E|-----------------------------|-----------------------|--------------------------|----------------------------|

    E  Q   E  E  S  S  E  E    S  S  E  E  E  Q   Q
E|-12-----------------------|-----------------------|
B|----10--10-13-12-13-15-15-|-12-13-12-10----10--10-|
G|--------------------------|-------------12--------|
D|--------------------------|-----------------------|
A|--------------------------|-----------------------|
E|--------------------------|-----------------------|

            
            
Suggest correction
Creating personal tab
Creating personal tab
You can edit any tab online and save it as your Personal.

You can edit, replace or remove any tab part or add personal notes – all changes will be seen only by you.

Personal tabs can be accessed anytime from any device, even offline.
Learn more »
Give kudos to tab author, rate the tab!
1 2 3 4 5
comments
print report bad tab
guest
You may want to rate the tab now too:
select rating
Wanna post a correction for this tab? Suggest correction