Oops, an error
Loading. Please wait.

Ya Vives En Mí tab

version 2
version 2

Whole song

53 views 1 this week
no commentswrite comment
1 2 3 4 5
3 more votes to show rating
add to favorites
×
Save as Personal and add changes to this tab that will be seen only by you. Learn more ›
×
You can save this tab as Personal to edit and correct it or add notes. All changes will be seen only by you. Learn more »
launch autoscroll
font size
0
reset
how to read this tab
guitar tuner
edit
Autoscroll
slow
fast
+/-
esc
set tempo
stop
Versión Banda...

Intro:

  Bb            Cm                Eb     F        Bb
e|-------------------------------------------3----------------------|
B|-3-1-3-1-3-1-----4-3-4-3-4-3-------3-4-4-4---6---------4-3-3---3--|
G|-------------3---------------5---5---------------2-3-5-------5----|
D|------------------------------------------------------------------|
A|------------------------------------------------------------------|
E|------------------------------------------------------------------|

  Bb            Cm                Eb     F   Eb        Bb
e|-------------------------------------------3----------------------|
B|-3-1-3-1-3-1-----4-3-4-3-4-3-------3-4-4-4---6---4-4-4-4-3--------|
G|-------------3---------------5---5-------------------------5-3----|
D|------------------------------------------------------------------|
A|------------------------------------------------------------------|
E|------------------------------------------------------------------|

          Bb                            Eb
Cuando te vi por primera vez nunca imagine
           Cm
que de ti me enamoraría
           Eb             F
que de tu vida yo dependería
                 Bb                         F
y ahora estoy aquí, completamente loco por ti.

      Bb                               Eb
Tu mirada llena de inocencia y de alegría
     Cm
tu manera de decirme hola,
       Eb              F
tan hermosa y tan natural
             Bb
como las estrellas
           F             F7
llenas de paz y de luz.

         Bb                                Eb
Y ahora vives en mi corazón y en mi pensamiento
          Cm                 F               Bb
en cada espacio, en cada rincón y en cada momento
          Bb
con tus detalles me enseñaste a amarte
             Cm
y creo que ahora es demasiado tarde
         Eb                 F
porque dueño de mi corazón no soy
                Bb
te pertenece a ti.

  Bb            Cm                Eb     F        Bb
e|-------------------------------------------3----------------------|
B|-3-1-3-1-3-1-----4-3-4-3-4-3-------3-4-4-4---6---------4-3-3---3--|
G|-------------3---------------5---5---------------2-3-5-------5----|
D|------------------------------------------------------------------|
A|------------------------------------------------------------------|
E|------------------------------------------------------------------|

  Bb            Cm                Eb     F   Eb        Bb
e|-------------------------------------------3----------------------|
B|-3-1-3-1-3-1-----4-3-4-3-4-3-------3-4-4-4---6---4-4-4-4-3--------|
G|-------------3---------------5---5-------------------------5-3----|
D|------------------------------------------------------------------|
A|------------------------------------------------------------------|
E|------------------------------------------------------------------|

      Bb                               Eb
Tu mirada llena de inocencia y de alegría
     Cm
tu manera de decirme hola,
       Eb              F
tan hermosa y tan natural
             Bb
como las estrellas
           F             F7
llenas de paz y de luz.

         Bb                                Eb
Y ahora vives en mi corazón y en mi pensamiento
          Cm                 F               Bb
en cada espacio, en cada rincón y en cada momento
          Bb
con tus detalles me enseñaste a amarte
             Cm
y creo que ahora es demasiado tarde
         Eb                 F
porque dueño de mi corazón no soy
                Bb
te pertenece a ti.

            
            
Suggest correction
Creating personal tab
Creating personal tab
You can edit any tab online and save it as your Personal.

You can edit, replace or remove any tab part or add personal notes – all changes will be seen only by you.

Personal tabs can be accessed anytime from any device, even offline.
Learn more »
Give kudos to tab author, rate the tab!
1 2 3 4 5
comments
print report bad tab
guest
Wanna post a correction for this tab? Suggest correction