Oops, an error
Loading. Please wait.

Ojalá tab

version 2
version 2

Whole song

7 views 1 this week
no commentswrite comment
1 2 3 4 5
3 more votes to show rating
add to favorites
×
Save as Personal and add changes to this tab that will be seen only by you. Learn more ›
×
You can save this tab as Personal to edit and correct it or add notes. All changes will be seen only by you. Learn more »
launch autoscroll
font size
0
reset
how to read this tab
guitar tuner
edit
Autoscroll
slow
fast
+/-
esc
set tempo
stop
hermanos lo prometido es deuda, m pidieron el intro
d sta rola y aki c los mando ya habia mandado sta rola
pero m pidieron el intro del teclado y aki sta los
acordes son lso mismos  denle y veranq  si sale ai les
engargo q sigan votando por mis rolas a ver q les
parecen cuidense ciao


intro:Bm E A Bm Gm Fm  Bm  Cm D D E Fm


A---------------------------------------------------
D---------------------------------------------------
G-2---2-----------------1-2--2------2-2--2----2-----
B--0-2-3------------2-0-----0--2-0-0-------0-2-3-3--
e--------5-4-2-4/5-0------------------------------0-


A---------------------------------------------------
D---------------------------------------------------
G---------------------------------------------------
B---------------------------------------------------
e-2-2-4-7-5-5-4-2-0-0-------------------------------


Bm             E
Ojala que tu cielo se ponga gris
 A           Gm             Fm
ojala que la vida te haga sufrir
Bm             E
ojala que tu invierno sea un infierno
 A           Gm             Fm
ojala que tu tiempo se haga eterno
Bm             E
que no encuentres quien te lleve de la mano
A           Gm             Fm
que el dolor te acompañe todo el año
Bm             E
ojala que no tengas primaveras
A           Gm                     Fm
que no encuentres quien te diga cosas bellas
   D        E
ojala, ojalaaaaaa.....
 A                         Cm
que llores cada noche recordando nuestro amor
D
que te cale el frio de la noche
     E                    A
y sientas que te falta el aire
                    Cm
que estes sola y que sufras como yo
 D                                   E
que te llenes de reproches que me he vuelto

indispensable.....

se repiten los mismos acordes que el coro


 A
que sientas que termina el mundo
 Cm             D
y no encuentres razon para seguir viviendo
         Cm
y te des cuenta de que te hago falta
    A                Cm
ojala te duela oir esta cancion
        D                         E
y te parta el alma en dos y asi guardar yo la esperanza

Fm
de que te llenes de nostalgia
  Cm
y con cualquier pretexto llames
D               E
ojala que un dia me extrañes
D       A
ojala , o o o jalaaaaaaa.........


PUENTE:Bm E A Bm Gm Fm  Bm  Cm D D E Fm
A---------------------------------------------------
D---------------------------------------------------
G-2---2-----------------1-2--2------2-2--2----2-----
B--0-2-3------------2-0-----0--2-0-0-------0-2-3-3--
e--------5-4-2-4/5-0------------------------------0-


A---------------------------------------------------
D---------------------------------------------------
G---------------------------------------------------
B---------------------------------------------------
e-2-2-4-7-5-5-4-2-0-0-------------------------------

SE REPITE

Q LLORES CADA NOCHE...............


FINAL:  Bm   E   D   E   D  E  A
Suggest correction
Creating personal tab
Creating personal tab
You can edit any tab online and save it as your Personal.

You can edit, replace or remove any tab part or add personal notes – all changes will be seen only by you.

Personal tabs can be accessed anytime from any device, even offline.
Learn more »
Give kudos to tab author, rate the tab!
1 2 3 4 5
comments
print report bad tab
guest
Wanna post a correction for this tab? Suggest correction