Oops, an error
Loading. Please wait.

La Noche De Las Dueñas De Casa Vivientes chords

version 2
version 2

Whole song

22 views 1 this week
no commentswrite comment
1 2 3 4 5
3 more votes to show rating
add to favorites
×
Save as Personal and add changes to this tab that will be seen only by you. Learn more ›
×
You can save this tab as Personal to edit and correct it or add notes. All changes will be seen only by you. Learn more »
launch autoscroll
font size
0
reset
transpose
0
reset
display chords
guitar tuner
edit
Autoscroll
slow
fast
+/-
esc
set tempo
stop
Strumming
There is no strumming pattern for this song yet. and get +5 IQ
INTRO:

RE /-----------------11-11-11-11---------/
A /-7-8-8-8-8-8-8-8-------------8-8-8-8-/
E /-------------------------------------/

RE /-----------------11-8-8-8-8-10-10-10-/
A /-7-8-8-8-8-8-8-8---------------------/
E /-------------------------------------/

RE /-----------------11-11-11-11---------/
A /-7-8-8-8-8-8-8-8-------------8-8-8-8-/
E /-------------------------------------/

RE /-----------------11-8-8-8-8-/
A /-7-8-8-8-8-8-8-8------------/
E /----------------------------/

  F    C#            A#
A)   Llegó el fin de semana
  F    C#-A#        C
     Le acaban de pagar
  F    C#      A#
     Se cae de borracho
  F           C#-A#       C
     Ni se te ocurra reclamar
  F    C#     A#
     Él pone la plata
  F   C#-A#        C
     Pone la autoridad
  F    C#        A#
     Tiene la mano dura
  F      C#-A#      C
     Dura para castigar

B)RIFF:

  D /-------------------------/
  LA /-4-4---4-4---4-4---4-4---/
  E /-----3-----3-----3-----3-/

  E            F
  Limpia, coce, barre y calla

  RIFF

  E            F
  Estás sola en esta batalla

  Do# (Se toca como riff)

  E        F
  Qué ganas con gritar

  Do# (Se deja sonando)

  E       F
  Nadie te va a ayudar

C)Do-E-C#-F  C-E

  C#     F        C-E  DO#-F
     ¡¡¡Terror de hogaaaaaar!!!

  C-E  C#-F

  F C#         A#
A)      Viene llegando
  F   C#-A#      C
     Terror de hogar
  F C#         A#
        Estás temblando
  F         C#
     Pero no quieres llorar
  F                   C#        A#
     Súper macho no se puede imaginar
  F                       C#-A#         C
     Lo que le espera para después de cenar
  F               C#       A#
     Va a caer, se va a terminar
  F                 C#-A#      C
     Su pequeña dictadura familiar

C)PUNTEO:                         ¡Terror de hogar!

  E /--------------------------------------------/
  SI /------------------------9-9-9-9-11-11-11-11-/
  G/-9-10-10-10-10-10-10-10---------------------/
  D /--------------------------------------------/

  E /------------------------------------------------/
  SI /------------------------11-------11-------11----/
  G/-9-10-10-10-10-10-10-10----10-10----10-10----10-/
  D /------------------------------------------------/

  E /-------------------------------------------/
  SI /------------------------11-11-11-9-9-9-9-9-/
  G/-9-10-10-10-10-10-10-10--------------------/
  D /-------------------------------------------/

  MI /-8-8-8----------------------------/
  B /-------9-9-9----------------------/
  SOL/-------------10-10-10-------------/
  D /----------------------11-11-11-10-/

  ¡Aaaaaah!

  F                   C#       A#
A)  A venganza de las dueñas de casa
  F         C#-A#     C
    Veo la tijera brillar
  F                   C#       A#
    La venganza de las dueñas de casa
  F                 C#-A#    C
    Un miembro menos en el hogar

  Termina con Fa

---------------------------------------------------------------------

¡¡¡AGUANTE FISKALES!!!

            
            
Suggest correction
Creating personal tab
Creating personal tab
You can edit any tab online and save it as your Personal.

You can edit, replace or remove any tab part or add personal notes – all changes will be seen only by you.

Personal tabs can be accessed anytime from any device, even offline.
Learn more »
Give kudos to tab author, rate the tab!
1 2 3 4 5
comments
print report bad tab
guest
Wanna post a correction for this tab? Suggest correction