Oops, an error
Loading. Please wait.

Resistiré tab

version 2
version 2

Whole song

38 views 1 this week
no commentswrite comment
1 2 3 4 5
3 more votes to show rating
add to favorites
×
Save as Personal and add changes to this tab that will be seen only by you. Learn more ›
×
You can save this tab as Personal to edit and correct it or add notes. All changes will be seen only by you. Learn more »
launch autoscroll
font size
0
reset
how to read this tab
guitar tuner
edit
Autoscroll
slow
fast
+/-
esc
set tempo
stop
(1)
--------------------------------------------------------------
--------------------------------------------------------------
--------------------------------------------------------------
-----------------3-3-3-3-3-3-3-3-----------------5-5-5-5-5-3-2
-3-3-3-3-3-3-3-3-1-1-1-1-1-1-1-1-5-5-5-5-5-5-5-5-3-3-3-3-3-1-0
-1-1-1-1-1-1-1-1-----------------3-3-3-3-3-3-3-3--------------

----------------------------------------------------------------
----------------------------------------------------------------
-------------------------------------------------5-5-4-4-3-3-4-4
-----------------3-3-3-3-3-3-3-3-5-5-5-5-5-5-5-5-3-3-2-2-1-1-2-2
-3-3-3-3-3-3-3-3-1-1-1-1-1-1-1-1-3-3-3-3-3-3-3-3----------------
-1-1-1-1-1-1-1-1------------------------------------------------

(coro)
---------------------------------------------------------------
---------------------------------------------------------------
---------------------------------3-3-3-3-3-3-3-3---------------
-----------------3-3-3-3-3-3-3-3-1-1-1-1-1-1-1-1--------5-5-5-5
-3-3-3-3-3-3-3-3-1-1-1-1-1-1-1-1----------------6-6-6-6-3-3-3-3
-1-1-1-1-1-1-1-1--------------------------------4-4-4-4--------

---------------------------------------------------------------
---------------------------------------------------------------
---------------------------------------------------------------
----------------5-5-5-5-5-5-5-5-5-5-5-5-5-5-5-5----------------
3-3-3-3-3-3-3-3-3-3-3-3-3-3-3-3-3-3-3-3-3-3-3-3----------------
1-1-1-1-1-1-1-1------------------------------------------------

PUNTEO
----------------------------------------------------
----------------------------------------------------
-5---5-6-5-6-5-6-5-6-3---3-5-3-3-5-3-5--------------
----------------------------------------------------
----------------------------------------------------
----------------------------------------------------

FINAL
----------------------------------------------------
----------------------------------------------------
-5---6-5-3---------5--------------------------------
-----------6-5-3--5-3-------------------------------
------------------3---------------------------------
----------------------------------------------------

(1)
Cuando pierda todas las partidas
cuando duerma con la soledad
cuando se me cierren las salidas 
y la noche no me deje en paz
cuando sienta miedo del silencio
cuando cueste mantenerse en pie
cuando se revelen los recuerdos
y me pongan contra la pared

(coro)
resistire erguido frente a todo
me volvere de hierro para endurecer la piel
y aunque los vientos de la vida soplen fuerte
soy como el junco que se dobla pero siempre sigue en pie
resistire para seguir viviendo
soportare los golpes y jamas me rendire
aunque los sueños se me rompan en pedazos
resistire, resistire

(PUNTEO)

(1)
cuando el mundo pierda toda magia
cuando mi enemigo sea yo
cuando me apuñale la nostalgia
y no reconozca ni mi voz
cuando me amenaze la locura
cuando en mi moneda salga cruz
cuando el diablo pase las facturas
o si alguna vez me faltas tu

(coro)
resistire erguido frente a todo
me volvere de hierro para endurecer la piel
y aunque los vientos de la vida soplen fuerte
soy como el junco que se dobla pero siempre sigue en pie
resistire para seguir viviendo
soportare los golpes y jamas me rendire
aunque los sueños se me rompan en pedazos
resistire, resistire

(PUNTEO)
(FINAL)

CUALQUIER DUDA O SUGERENCIA ESCRIBIR A joe_anarchist@

            
            
Suggest correction
Creating personal tab
Creating personal tab
You can edit any tab online and save it as your Personal.

You can edit, replace or remove any tab part or add personal notes – all changes will be seen only by you.

Personal tabs can be accessed anytime from any device, even offline.
Learn more »
Give kudos to tab author, rate the tab!
1 2 3 4 5
comments
print report bad tab
guest
Wanna post a correction for this tab? Suggest correction