Oops, an error
Loading. Please wait.

El Sueño Americano bass

version 2
version 2

Whole song

by Flema
44 views 1 this week
no commentswrite comment
1 2 3 4 5
3 more votes to show rating
add to favorites
×
Save as Personal and add changes to this tab that will be seen only by you. Learn more ›
×
You can save this tab as Personal to edit and correct it or add notes. All changes will be seen only by you. Learn more »
launch autoscroll
font size
0
reset
guitar tuner
edit
Autoscroll
slow
fast
+/-
esc
set tempo
stop
empieza la viola con un punteo re dificil...y ahi entra el bajo

G:--------------------------------------------  X2
D:--------------------------------------------
A:--------------------------------------------
E:-00--00--00--00-----------------------------

G:--------------------------------------------  X2
D:--------------------------------------------
A:---76---78--76--56--------------------------
E:-00---00--00--00----------------------------

UNA VIOLA HACE LOS ACORDES Y EL BAJO MARCA

G:--------------------------------------------
D:--------------------------------------------
A:--------------------------------------------
E:-3-0-1-0--3-0-1-0---------------------------

AHORA ARRANCA RAPIDO SIGUIENDO ESAS NOTAS


G:--------------------------------------------
D:--------------------------------------------
A:--------------------------------------------
E:-3-00000000-11-00--3-00000000-11-00---------

EN TARROS DE ALCOHOL...

G:--------------------------------------------
D:--------------------------------------------
A:--------------------------------------------
E:-3-6-5--3-6-5-------------------------------

Y VUELVE A EMPEZAR RAPIDO..

BUENO ESPERO QUE LES SIRVA..UNO DE LOS MEJORES TEMAS DE FLEMA!!!

            
            
Suggest correction
Creating personal tab
Creating personal tab
You can edit any tab online and save it as your Personal.

You can edit, replace or remove any tab part or add personal notes – all changes will be seen only by you.

Personal tabs can be accessed anytime from any device, even offline.
Learn more »
Give kudos to tab author, rate the tab!
1 2 3 4 5
comments
print report bad tab
guest
Wanna post a correction for this tab? Suggest correction