Oops, an error
Loading. Please wait.

No Te Dejaré bass

version 2
version 2

Whole song

by Flema
7 views 1 this week
no commentswrite comment
1 2 3 4 5
3 more votes to show rating
add to favorites
×
Save as Personal and add changes to this tab that will be seen only by you. Learn more ›
×
You can save this tab as Personal to edit and correct it or add notes. All changes will be seen only by you. Learn more »
launch autoscroll
font size
0
reset
guitar tuner
edit
Autoscroll
slow
fast
+/-
esc
set tempo
stop
hola gente
escuchen la cancion por los ritmos
y sigan la tab

*=veces necesarias
INTRO : E


MIRA COMO CAE EL TECHO DEL ASCENSOR...                     (X1)
G/---------------------------------------------------------
D/---------------------------------------------------------
A/-7*------7------0*--7*--2*--7*--2*-----------------------
E/-----2*-----4*-------------------------------------------


VOS SOS LA NENA MAS BLANCA DE ACA...                       (X1)
G/---------------------------------------------------------
D/---------------------------------------------------------
A/-7*------7------0*--7*--2*--7*--2*-----------------------
E/-----2*-----4*-------------------------------------------


          CUANDO CAEN LAS SOMBRAS DE LA OSCURIDAD...       (X3)
G/---------------------------------------------------------
D/---------------------------------------------------------
A/-7-------0-------555555----------------------------------
E/---2--4--------------------------------------------------
Y SI SIGO ASI NO TE VOY A DEJAR.../NO TE DEJARE/NO TE DEJARE...    (X1)
G/-----------------------------------------------------------------
D/-----------------------------------------------------------------
A/--2222---7777---2222-----777---333---777---333-------------------
E/-----------------------------------------------------------------
Suggest correction
Creating personal tab
Creating personal tab
You can edit any tab online and save it as your Personal.

You can edit, replace or remove any tab part or add personal notes – all changes will be seen only by you.

Personal tabs can be accessed anytime from any device, even offline.
Learn more »
Give kudos to tab author, rate the tab!
1 2 3 4 5
comments
print report bad tab
guest
Wanna post a correction for this tab? Suggest correction