Oops, an error
Loading. Please wait.

Sólo Un Juego Más tab

version 2
version 2

Whole song

by Flema
16 views 1 this week
no commentswrite comment
1 2 3 4 5
3 more votes to show rating
add to favorites
×
Save as Personal and add changes to this tab that will be seen only by you. Learn more ›
×
You can save this tab as Personal to edit and correct it or add notes. All changes will be seen only by you. Learn more »
launch autoscroll
font size
0
reset
how to read this tab
guitar tuner
edit
Autoscroll
slow
fast
+/-
esc
set tempo
stop
q tal gente, les dejo el solo de "solo un juego mas",
alguien me lo habia pedido, no se quien, aca esta...
me sente a sacarlo y es facil, usa la pentatónica de mi nada mas.

*cuando pongo una v es para el vibrato, no se como
 mierda hacer el simbolo cagado.

E C           E          C  E         C
e|--------------------------------15-17b19 17b19-17---|
B|-------10--10b12-10b12----15h17---------------------|
G|--9h12----------------------------------------------|
D|----------------------------------------------------|
A|----------------------------------------------------|
E|----------------------------------------------------|


     D                    E
e|--19-17-15------------------|
B|------------19-17-15-17-17--|
G|----------------------------|
D|----------------------------|
A|----------------------------|
E|----------------------------|


    C           E               C       E
e|----------------------------------------|
B|--15b17-15-12---------------------------|
G|--------------14b16vvv--14b16-14-12-----|
D|------------------------------------14--|
A|----------------------------------------|
E|----------------------------------------|


   C                       D
e|--------------------------------------------------|
B|-------------------------------15-----------------|
G|-------------------12-14-14b16----14b16r14-12-12--|
D|-------------12-14--------------------------------|
A|-------12-14--------------------------------------|
E|-12-15--------------------------------------------|
   ---- a las chapas ----

esta gilada me hizo un quilombo con el largo de las lineas, asi
q lo corregi apurado pero mas o menos quedo

listo, q les sirva. creo q esta bien, si le encuentran errores diganme

anarkkky@

RICKY NO MURIO!!!

            
            
Suggest correction
Creating personal tab
Creating personal tab
You can edit any tab online and save it as your Personal.

You can edit, replace or remove any tab part or add personal notes – all changes will be seen only by you.

Personal tabs can be accessed anytime from any device, even offline.
Learn more »
Give kudos to tab author, rate the tab!
1 2 3 4 5
comments
print report bad tab
guest
Wanna post a correction for this tab? Suggest correction