Oops, an error
Loading. Please wait.

Atolondrón tab

version 2
version 2

Whole song

11 views 3 this week
no commentswrite comment
1 2 3 4 5
3 more votes to show rating
add to favorites
×
Save as Personal and add changes to this tab that will be seen only by you. Learn more ›
×
You can save this tab as Personal to edit and correct it or add notes. All changes will be seen only by you. Learn more »
launch autoscroll
font size
0
reset
how to read this tab
guitar tuner
edit
Autoscroll
slow
fast
+/-
esc
set tempo
stop
Intro
   G        Em  D    C           Am
e|-----------------------------------------|
B|-----------------------------------------|
G|-----------------------------------------|
D|----------5---5-4---2---2----------------|
A|------2-5---------2-------5----2h3-2-0-2-|
E|-3--3-----------------------3------------|

    G           Em   D       C           Am
e|---------------------------------------------------|
B|---------------------------------------------------|
G|---------0h2---------------------------------------|
D|--------------5---5-4-----2---2--------------------|
A|-------2---------------2---------5-----2h3-2-0-2---|
E|--3--3-----------------------------3-------------3-|

e|--------------|
B|--------------|
G|------------0-|  D   C
D|--------0h2---|
A|----0h2-------|
E|--3-----------|


C
No sé si es importante
     D              Em
pero quiero decirte algo
                   C
antes que te alejes
      D              Em
y te pierdas en pensamientos
                  C
que no me incluyen
         D               Em
Apuro tu boca tenés que hablar
                   C
cualquier frase es buena,
   Am
es sólo un pretexto


G         Em           D        C           Am
  Que más, qué más que más me vas a decir?


B7                       Em
   Cosas que no vi pasar,
               Bm         A
atolondrándome para alcanzarte de
B7                        Em
  rondas que no tienen fin
               C     D
ni principio real, real


Final
e|------------------|
B|------------------|
G|-----------0h2/4--|
D|-------0h2--------|
A|---0h2------------|
E|-3----------------|

            
            
Suggest correction
Creating personal tab
Creating personal tab
You can edit any tab online and save it as your Personal.

You can edit, replace or remove any tab part or add personal notes – all changes will be seen only by you.

Personal tabs can be accessed anytime from any device, even offline.
Learn more »
Give kudos to tab author, rate the tab!
1 2 3 4 5
comments
print report bad tab
guest
Wanna post a correction for this tab? Suggest correction