Oops, an error
Loading. Please wait.

Escúchame Mujer tab

version 4
version 4

Whole song

142 views 1 this week
no commentswrite comment
1 2 3 4 5
3 more votes to show rating
add to favorites
×
Save as Personal and add changes to this tab that will be seen only by you. Learn more ›
×
You can save this tab as Personal to edit and correct it or add notes. All changes will be seen only by you. Learn more »
launch autoscroll
font size
0
reset
how to read this tab
guitar tuner
edit
Autoscroll
slow
fast
+/-
esc
set tempo
stop
La cancion consta de dos ritmos,
el primero es una serie de acordes arpegiados.
A este ritmo le llamaremos riff 1,
(El riff 1 es la intro).
El segundo ritmo son tres acordes,
tocados siempre al mismo ritmo.
SOL - LA - FA - LA, detallo el ritmo mas abajo.

---------------------------------------
Realiza la intro una vez...

INTRO - RIFF 1
  RE                   LA                   SI

-|----------2-------2-|--------------------|---------------------
-|-------3-------3----|----------3-------3-|-----------3-------3-
-|----2-------2-------|-------3-------3----|--------4-------4----
-|-0------------------|----3-------3-------|----4--------4-------
-|--------------------|0-------------------|2--------------------
-|--------------------|--------------------|---------------------
  FA                    SOL                 LA

-|---------------------|---------3-------3-|---------------------
-|---------------------|------3-------3----|---------3-------3---
-|----------3--------3-|---0-------0-------|------3-------3------
-|-------4--------4----|-------------------|---3-------3---------
-|----4--------4-------|-------------------|0--------------------
-|-2-------------------|3------------------|---------------------
 FA

-|--------------2-----/
-|--------------2-----/
-|---------3----3-----/
-|------4-------4-----/
-|---4----------4-----/
-|2-------------2-----/

RIFF 2
  SOL                 LA             FA#               LA

-|-3--X---3---3---X--|-0-X--0--0--X-|-2--X--2--2--X--|--0--X--0--0--X--|-
-|-3--X---3---3---X--|-3-X--3--3--X-|-2--X--2--2--X--|--3--X--3--3--X--|-
-|-0--X---0---0---X--|-3-X--3--3--X-|-3--X--3--3--X--|--3--X--3--3--X--|-
-|-0--X---0---0---X--|-3-X--3--3--X-|-4--X--4--4--X--|--3--X--3--3--X--|-
-|-2--x---2---2---X--|-0-X--0--0--X-|-4--X--4--4--X--|--0--X--0--0--X--|-
-|-3--X---3---3---X--|--------------|-2--X--2--2--X--|-----------------|-


RIFF 1

RE                     LA
Paseo por las huellas, que dejan tus zapatos,
SI                     FA
me escondo para mirarte en el humo de tu cigarro,
SOL                    LA                 FA
bailo con el vuelo de tu falda al caminar...
RE                     LA
Sonrío por tener, esta amistad contigo,
SI                        FA
aunque quizás deba llorar
                       SOL
porque nunca seremos mas que amigos
  LA                    FA
sigo en el puto proyecto de hacerte feliz...

RIFF 2

SOL                    LA
Te espero en el vaivén de tus caderas,
FA                     LA
espera a que yo llegue para desnudarte,
SOL                    LA
haría de esta noche una leyenda
FA                     LA
tienes que estar preparada para entregarte...

RIFF 2

SOL               LA
ESCÚCHAME MUJER, QUE AQUÍ SOLO ESTOY YO,
FA                 LA
MIDIENDO LA DISTANCIA HASTA TU CORAZÓN,
SOL                     LA                 FA . LA
AUNQUE TÚ NO LO SIENTAS, ESO LO SUFRO YO...
SOL              LA
ESCUCHAME MUJER, SIGO PENSANDO EN TI
FA                   LA
VIVO DE TU RECUERDO, MALDIGO MI EXISTIR,
LA (arpegiado)
NADA TIENE SENTIDO...

Intro (nuevamente)

Te espero cada noche, en el mundo de los sueños,
allí donde no se donde empiezan mis manos y acaba tu cuerpo,
siento no sentir que ya no quiero despertar...
Juego con las palabras, que salen de tu boca,
vacilo etre tus labios, te invito a otra copa,
que manchan tus besos de rojo carmín..
Te espero en el vaivén de tus caderas
espera a que yo llegue para desnudarte,
haría de esta noche una leyenda
tienes que estar preparada para entregarte...

ESCÚCHAME MUJER, QUE AQUÍ SOLO ESTOY YO,
MIDIENDO LA DISTANCIA HASTA TU CORAZÓN,
AUNQUE TU NO LO SIENTAS, ESO LO SUFRO YO...
ESCÚCHAME MUJER, SIGO PENSANDO EN TI
VIVO DE TU RECUERDO, MALDIGO MI EXISTIR,
NADA TIENE SENTIDO...
SOLO TÚ Y TUS BESOS, ALIMENTAN MIS GANAS,
LLENAN MIS RECUERDOS, NO SIENTO LO QUE DIGO
DIGO LO QUE SIENTO,
ME ESTOY VOLVIENDO LOCO DE TANTO ESPERAR...

Solo tu y tus besos alimentan mis ganas llenan mis recuerdos
No siento lo que digo, digo lo que siento
Me estoy volviendo loco de tanto esperar? (X3)
-- la primera vuelta toca con las cuerdas apagadas, mismos acordes --

Para cualquier duda o aclaracion escribirme a drakoniak_guitar@
gracias a todos.

            
            
Suggest correction
Creating personal tab
Creating personal tab
You can edit any tab online and save it as your Personal.

You can edit, replace or remove any tab part or add personal notes – all changes will be seen only by you.

Personal tabs can be accessed anytime from any device, even offline.
Learn more »
Give kudos to tab author, rate the tab!
1 2 3 4 5
comments
print report bad tab
guest
Wanna post a correction for this tab? Suggest correction