Oops, an error
Loading. Please wait.

Será Por Eso tab

version 4
version 4

Whole song

by Forseps
32 views 1 this week
no commentswrite comment
1 2 3 4 5
3 more votes to show rating
add to favorites
×
Save as Personal and add changes to this tab that will be seen only by you. Learn more ›
×
You can save this tab as Personal to edit and correct it or add notes. All changes will be seen only by you. Learn more »
launch autoscroll
font size
0
reset
how to read this tab
guitar tuner
edit
Autoscroll
slow
fast
+/-
esc
set tempo
stop
Canción: Será por eso
Artista: Fórceps & Saúl Hernández

Intro
e----------------------------------------
B----------------------------------------
G----------------------------------------
D--9--------------------9----------------
A?-7--------------------7----------------
E?-0--------------12/7--0----------------
|
e----------------------------------------
B----------------------------------------
G?9/10/9-7-9~~/----------9/10/9-7-9------
D-----------------------------------9~~--
A----------------------------------------
E----------------------------------------

e----------------------------------------
B----------------------------------------
G----------------------------------------
D--9--------------------9----------------
A?-7--------------------7----------------
E?-0--------------12/7--0----------------
|
e----------------------------------------
B----------------------------------------
G?----------------------9/10/9-7-9~~/----
D-2/6~~----------------------------------
A----------------------------------------
E----------------------------------------

Desde aquel día me trajeron para acá
e----------------------------------------
B----------------------------------------
G----------------------------------------
D?-9-------------------------------------
A?-7-------------------------------------
E?-0-------------------------------------

Será por que no me dejaba rasurar
e----------------------------------------
B----------------------------------------
G----------------------------------------
D?-9-------------------------------------
A?-7-------------------------------------
E?-0-------------------------------------
|
e----------------------------------------
B-----------------------------------7-5~~
G---------------------------------8------
D----------------------------------------
A----------------------------------------
E----------------------------------------

Ya no me hablan ni siquiera las hormigas
e----------------------------------------
B----------------------------------------
G----------------------------------------
D?-9-----------------9-------------------
A?-7-----------------6-------------------
E?-0-------------------------------------
|
e----------------------------------------
B--------------------4-------------4-7/9-
G----------------------------------------
D----------------------------------------
A---------------------------------------
E---------------------------------------


Será por que no saben que ando por aquí
e---------------------------------------
B---------------------------------------
G---------------------------------------
D?--6------------------6----------------
A?--4------------------3----------------
E?--------------------------------------

Interlude
e----------------------------------------
B----------------------------------------
G----------------------------------------
D--9--------------------9----------------
A?-7--------------------7----------------
E?-0--------------12/7--0----------------
|
e------------------------------------------
B------------------------------------------
G?9/10/9-7-9~~-3~~------9/10/9-7-9-----3~~-
D----------------------------------9 ~~----
A------------------------------------------
E------------------------------------------

    Desde aquel día no me he dejado tocar
e----------------------------------------
B----------------------------------------
G----------------------------------------
D?-9-------------------------9-----------
A?-7-------------------------6-----------
E?-0-------------------------------------
|
e----------------------------------------
B-----------------------------------7/9~~
G---------------------------------8------
D----------------------------------------
A----------------------------------------
E----------------------------------------

     Solo mis uñas me pueden acariciar
e----------------------------------------
B----------------------------------------
G----------------------------------------
D?-6---------------------6---------------
A?-4---------------------3---------------
E?---------------------------------------
|
e----------------------------------------
B-----------------------------------7-5~~
G---------------------------------8------
D----------------------------------------
A----------------------------------------
E----------------------------------------

    No me dejado de pintar en las paredes
e----------------------------------------
B----------------------------------------
G----------------------------------------
D?-9-------------------9-----------------
A?-7-------------------6-----------------
E?-0-------------------------------------
|
e----------------------------------------
B-----------------------------------7/9~~
G---------------------------------8------
D----------------------------------------
A----------------------------------------
E----------------------------------------

     Será por que las sombras me hacen olvidar
e----------------------------------------
B----------------------------------------
G----------------------------------------
D?-6--------------------------6----------
A?-4--------------------------3----------
E?---------------------------------------

Bajeo:
Por eso me pongo un saco

Tomo la navaja y salgo a clavar
e----------------------------------------
B----------------------------------------
G---------------------------5------------
D?--------------------------5------------
A?--------------------------3------------
E?---------------------------------------

   Será por eso que no me dejan salir
e---------------------------------------
B---------------------------------------
G---------------------------------------
D?-5-------------------7----------------
A?-5-------------------7----------------
E?-3-------------------5----------------
|
e---------------------------------------
B-------3/12-8-------------------3/10-8-
G---------------------------------------
D---------------------------------------
A---------------------------------------
E---------------------------------------

   Será por eso que me dan electroshocks
e---------------------------------------
B---------------------------------------
G---------------------------------------
D?-3-------------------2----------------
A?-3-------------------2----------------
E?-1-------------------0----------------
|
e---------------------------------------
B-------3/12-8-------------------3/10-8-
G---------------------------------------
D---------------------------------------
A---------------------------------------
E---------------------------------------

   Será por eso que no tengo que temblar
e---------------------------------------
B---------------------------------------
G---------------------------------------
D?-5-------------------7----------------
A?-5-------------------7----------------
E?-3-------------------5----------------
|
e---------------------------------------
B-------3/12-8-------------------3/10-8-
G---------------------------------------
D---------------------------------------
A---------------------------------------
E---------------------------------------

   Será por eso que no tengo que..
e---------------------------------------
B---------------------------------------
G---------------------------------------
D?-3-------------------2----------------
A?-3-------------------2----------------
E?-1-------------------0----------------
|
e---------------------------------------
B-------3/12-8--------------------------
G---------------------------------------
D---------------------------------------
A---------------------------------------
E---------------------------------------

   Ya no me duele ni siquiera la razón
e----------------------------------------
B----------------------------------------
G----------------------------------------
D?-9----------------------9--------------
A?-7----------------------6--------------
E?-0-------------------------------------
|
e----------------------------------------
B-----------------------------------7/9~~
G---------------------------------8------
D----------------------------------------
A----------------------------------------
E----------------------------------------

     Dice que cuando duermo estoy mucho mejor
e----------------------------------------
B----------------------------------------
G----------------------------------------
D?-6--------------------------6----------
A?-4--------------------------3----------
E?---------------------------------------
|
e----------------------------------------
B-----------------------------------7-5~~
G---------------------------------8------
D----------------------------------------
A----------------------------------------
E----------------------------------------

     Ya ni mis manos me creen lo que les platico
e----------------------------------------
B----------------------------------------
G----------------------------------------
D?-9--------------------------9----------
A?-7--------------------------6----------
E?-0-------------------------------------
|
e----------------------------------------
B-----------------------------------7/9~~
G---------------------------------8------
D----------------------------------------
A----------------------------------------
E----------------------------------------

   Y eso hace que yo me sienta muy mal
e----------------------------------------
B----------------------------------------
G----------------------------------------
D?-6-----------------6-------------------
A?-4-----------------3-------------------
E?---------------------------------------

Bajeo:

Por eso me pongo un saco

Tomo la navaja y salgo a clavar
e----------------------------------------
B----------------------------------------
G---------------------------5------------
D?--------------------------5------------
A?--------------------------3------------
E?---------------------------------------

   Será por eso que no me dejan salir
e---------------------------------------
B---------------------------------------
G---------------------------------------
D?-5-------------------7----------------
A?-5-------------------7----------------
E?-3-------------------5----------------
|
e---------------------------------------
B-------3/12-8-------------------3/10-8-
G---------------------------------------
D---------------------------------------
A---------------------------------------
E---------------------------------------

   Será por eso que me dan electroshocks
e---------------------------------------
B---------------------------------------
G---------------------------------------
D?-3-------------------2----------------
A?-3-------------------2----------------
E?-1-------------------0----------------
|
e---------------------------------------
B-------3/12-8-------------------3/10-8-
G---------------------------------------
D---------------------------------------
A---------------------------------------
E---------------------------------------

   Será por eso que no tengo que temblar
e---------------------------------------
B---------------------------------------
G---------------------------------------
D?-5-------------------7----------------
A?-5-------------------7----------------
E?-3-------------------5----------------
|
e---------------------------------------
B-------3/12-8-------------------3/10-8-
G---------------------------------------
D---------------------------------------
A---------------------------------------
E---------------------------------------

   Será por eso que no tengo que..
e---------------------------------------
B---------------------------------------
G---------------------------------------
D?-3-------------------2----------------
A?-3-------------------2----------------
E?-1-------------------0----------------
|
e---------------------------------------
B-------3/12-8--------------------------
G---------------------------------------
D---------------------------------------
A---------------------------------------
E---------------------------------------


   Será por eso que no me dejan salir
e---------------------------------------
B---------------------------------------
G---------------------------------------
D?-5-------------------7----------------
A?-5-------------------7----------------
E?-3-------------------5----------------
|
e---------------------------------------
B-------3/12-8-------------------3/10-8-
G---------------------------------------
D---------------------------------------
A---------------------------------------
E---------------------------------------

   Será por eso que me dan electroshocks
e---------------------------------------
B---------------------------------------
G---------------------------------------
D?-3-------------------2----------------
A?-3-------------------2----------------
E?-1-------------------0----------------
|
e---------------------------------------
B-------3/12-8-------------------3/10-8-
G---------------------------------------
D---------------------------------------
A---------------------------------------
E---------------------------------------

   Será por eso que no tengo que temblar
e---------------------------------------
B---------------------------------------
G---------------------------------------
D?-5-------------------7----------------
A?-5-------------------7----------------
E?-3-------------------5----------------
|
e---------------------------------------
B-------3/12-8-------------------3/10-8-
G---------------------------------------
D---------------------------------------
A---------------------------------------
E---------------------------------------

   Será por eso que no tengo que..
e---------------------------------------
B---------------------------------------
G---------------------------------------
D?-3-------------------2----------------
A?-3-------------------2----------------
E?-1-------------------0----------------
|
e---------------------------------------
B-------3/12-8--------------------------
G---------------------------------------
D---------------------------------------
A---------------------------------------
E---------------------------------------


Ahahaha ahahah ahahah ahahah ahahah ahahah
e---------------------------------------
B---------------------------------------
G---------------------------------------
D?-5-------------------7----------------
A?-5-------------------7----------------
E?-3-------------------5----------------
|
e---------------------------------------
B-------3/12-8-------------------3/10-8-
G---------------------------------------
D---------------------------------------
A---------------------------------------
E---------------------------------------

Ahahaha ahahah ahahah ahahah ahahah ahahah
e---------------------------------------
B---------------------------------------
G---------------------------------------
D?-3-------------------2----------------
A?-3-------------------2----------------
E?-1-------------------0----------------
|
e---------------------------------------
B-------3/12-8-------------------3/10-8-
G---------------------------------------
D---------------------------------------
A---------------------------------------
E---------------------------------------

Ahahaha ahahah ahahah ahahah ahahah ahahah
e---------------------------------------
B---------------------------------------
G---------------------------------------
D?-5-------------------7----------------
A?-5-------------------7----------------
E?-3-------------------5----------------
|
e---------------------------------------
B-------3/12-8-------------------3/10-8-
G---------------------------------------
D---------------------------------------
A---------------------------------------
E---------------------------------------

Ahahaha ahahah ahahah ahahah ahahah ahahah
e---------------------------------------
B---------------------------------------
G---------------------------------------
D?-3-------------------2----------------
A?-3-------------------2----------------
E?-1-------------------0----------------
|
e---------------------------------------
B-------3/12-8-------------------3/10-8-
G---------------------------------------
D---------------------------------------
A---------------------------------------
E---------------------------------------

EN LA MEMORIA DE MIRIAM NAJERA BESS-OVERTO

            
            
Suggest correction
Creating personal tab
Creating personal tab
You can edit any tab online and save it as your Personal.

You can edit, replace or remove any tab part or add personal notes – all changes will be seen only by you.

Personal tabs can be accessed anytime from any device, even offline.
Learn more »
Give kudos to tab author, rate the tab!
1 2 3 4 5
comments
print report bad tab
guest
Wanna post a correction for this tab? Suggest correction