Oops, an error
Loading. Please wait.

Y Aquí Estoy tab

version 2
version 2

Whole song

14 views 1 this week
no commentswrite comment
1 2 3 4 5
3 more votes to show rating
add to favorites
×
Save as Personal and add changes to this tab that will be seen only by you. Learn more ›
×
You can save this tab as Personal to edit and correct it or add notes. All changes will be seen only by you. Learn more »
launch autoscroll
font size
0
reset
how to read this tab
guitar tuner
edit
Autoscroll
slow
fast
+/-
esc
set tempo
stop
La canción originalmente está en Re (D), con el capo en el segundo
trasto queda bien.

Intro:
           C             Em                   F
|-9>10--8--8---8-8-8-8---7-7--5-5>7---7>8--7--7--5--5--3--3>5---
|-------5--5---5-5-5-5---8-8--6-6>8--8>10--8--8--6--6--5--5>6---
|---------------------------------------------------------------
|---------------------------------------------------------------
|--7>8----------------------------------------------------------
|---------------------------------------------------------------

        Am7             G
|--3--1--0--0---------------3-----------------------------------
|--5--3--1--1--3--2--3------------------------------------------
|--------------4--3--4--3>4-------------------------------------
|---------------------------------------------------------------
|---------------------------------------------------------------
|---------------------------------------------------------------

 C                    Em           F
¿Cómo expresar, con palabras mujer,
           G          Em       Am
todo este mundo que desatas en mí?
F             G
  ¿cómo explicarte?

  C              Em        F
¿Cómo podré, al poeta robar,
         G           Em         Am
alguna frase para hablarte de amor?
F          G
   para decirte?

       C                   Em
Que te amo como nunca imaginé,
          F                         G
que te quiero y eso es todo lo que sé,
     C                            Em
separarnos por tan poco fue un error,
     F             G              C (Inicia solo)
el amor hoy me derrota, y aquí estoy.

                         Em                   F
|-9>10--8--8---8-8-8-8---7-7--5-5>7---7>8--7--7--5--5--3--3>5---
|-------5--5---5-5-5-5---8-8--6-6>8--8>10--8--8--6--6--5--5>6---
|---------------------------------------------------------------
|---------------------------------------------------------------
|--7>8----------------------------------------------------------
|---------------------------------------------------------------


        Am7             G
|--3--1--0--0---------------3-----------------------------------
|--5--3--1--1--3--2--3------------------------------------------
|--------------4--3--4--3>4-------------------------------------
|---------------------------------------------------------------
|---------------------------------------------------------------
|---------------------------------------------------------------


        C              Em
Hoy quisiera volver, a temblar en tu piel,
      F              G         Em      Am
recorrerla tantas veces, hasta enloquecer,
F           G         C G
   hacerte mía, otra vez.

          C                   Em
Porque te amo como nunca imaginé,
                 F                         G
porque que te quiero y eso es todo lo que sé
     C                            Em
separarnos por tan poco fue un error,
     F             G              C
el amor hoy me derrota, y aquí estoy,
       Em               F
te amo tanto y tanto amor,
      G
es lo único que sé,
     C                            Em
separarnos por tan poco fue un error,
     F             G              C (Inicia solo de salida)
el amor hoy me derrota, y aquí estoy.

                         Em                   F
|-9>10--8--8---8-8-8-8---7-7--5-5>7---7>8--7--7--5--5--3--3>5---
|-------5--5---5-5-5-5---8-8--6-6>8--8>10--8--8--6--6--5--5>6---
|---------------------------------------------------------------
|---------------------------------------------------------------
|--7>8----------------------------------------------------------
|---------------------------------------------------------------

        Am7             G
|--3--1--0--0---------------3-----------------------------------
|--5--3--1--1--3--2--3------------------------------------------
|--------------4--3--4--3>4-------------------------------------
|---------------------------------------------------------------
|---------------------------------------------------------------
|---------------------------------------------------------------
Suggest correction
Creating personal tab
Creating personal tab
You can edit any tab online and save it as your Personal.

You can edit, replace or remove any tab part or add personal notes – all changes will be seen only by you.

Personal tabs can be accessed anytime from any device, even offline.
Learn more »
Give kudos to tab author, rate the tab!
1 2 3 4 5
comments
print report bad tab
guest
Wanna post a correction for this tab? Suggest correction