Oops, an error
Loading. Please wait.

No Te Olvides De Mí tab

version 2
version 2

Whole song

47 views 1 this week
no commentswrite comment
1 2 3 4 5
3 more votes to show rating
add to favorites
×
Save as Personal and add changes to this tab that will be seen only by you. Learn more ›
×
You can save this tab as Personal to edit and correct it or add notes. All changes will be seen only by you. Learn more »
launch autoscroll
font size
0
reset
how to read this tab
guitar tuner
edit
Autoscroll
slow
fast
+/-
esc
set tempo
stop
El requinto toca con el Capo en el 6to traste

E--8-- 9---11--13----------------13--13--13---11---9--11-----------
B--9--11--13--14-----9-11-9------14--14--14---13--11--13----9-11-9-

E----9---11--13--14---------8--------11---13---14---13---11---13---
B----11--13--14--16-------9----------13---14---16---14---13---14---
G-----------------------8------------------------------------------
D--------------------10--------------------------------------------

E--14----13--------11-16----11------14--13----------9-14-----9---
B--16----14------13-------13--------16--14-------11-------11-----
G--------------13-----------------------------11----------------

E-------------------------------------
B-9 h 11--9------6--7--6--------------
G--------------8---------8--6---------
D-------------------------------------

E--------11--9---------------------------
B------9-------9----------9-11-9---------
G---10-----------------10--------10------
D-11----------------11--------------11---

C#                             G#
Hoy he venido a contarte    que estoy triste
 F#                     G#                  C#
porque me voy mañana   y tengo alejarme de ti...X2
C#                          G#
Quiero que tu, siempre me recuerdes...
    F#           G#             C#       G#
que la distancia no te haga olvidarte de mi!
C#                          G#
Quiero que tu, siempre me recuerdes...
    F#           G#             C#       G#
que la distancia no te haga olvidarte de mi!
  F#         G#            C#
de mi...  no te olvides de mi!
C#                          G#
Se que voy a extrañarte donde quiera que este
F#                                  G#                    C#
tu  te has metido hasta en la sangre  que corre por mi piel
C#              G#
yo volvere      a estar junto contigo,
F#            G#              C#              G#
y vencere     la distancia que hay entre los dos
C#             G#                F#
Yo cruzare ese mar infinito      y volvere
G#               C#           G#       F#
para amarte por  siempre mi amor      mi amor,
G#               C#
no te olvides de mi...


E--8-- 9---11--13----------------13--13--13---11---9--11-----------
B--9--11--13--14-----9-11-9------14--14--14---13--11--13----9-11-9-

E----9---11--13--14---------8--------11---13---14---13---11---13---
B----11--13--14--16-------9----------13---14---16---14---13---14---
G-----------------------8------------------------------------------
D--------------------10--------------------------------------------

E--14----13--------11-16----11------14--13----------9-14-----9---
B--16----14------13-------13--------16--14-------11-------11-----
G--------------13-----------------------------11----------------

E-------------------------------------
B-9 h 11--9------6--7--6--------------
G--------------8---------8--6---------
D-------------------------------------
B------9-11-9--------I-----9--11--9-------
G----10------------8-I----8------------10-
D--11-----------10---I--10----------11---- X2

E----------9-------------------------8-----------------------
B--------9--11-9--------9----------9---9-----------------9---
G-----10---------10----8---------8-------10--8--------10-----
D---11---------------10-------10-------------------11--------X2

E-----------9----9-I---------8---8---
B--------9----9--- I-------9---9-----
G-----10-----------I-----8-----------
D--11--------------I--10-------------X2

B-------6--7--6--------
G----8------------8--6-

C#                          G#
Quiero que tu, siempre me recuerdes...
    F#           G#             C#       G#
que la distancia no te haga olvidarte de mi!
  F#         G#            C#
de mi...  no te olvides de mi!
C#                          G#
Se que voy a extrañarte donde quiera que este
F#                                  G#                    C#
tu  te has metido hasta en la sangre  que corre por mi piel
C#              G#
yo volvere      a estar junto contigo,
F#            G#              C#              G#
y vencere     la distancia que hay entre los dos
C#             G#                F#
Yo cruzare ese mar infinito      y volvere
G#               C#           G#       F#
para amarte por  siempre mi amor      mi amor,
G#               C#
no te olvides de mi...

            
            
Suggest correction
Creating personal tab
Creating personal tab
You can edit any tab online and save it as your Personal.

You can edit, replace or remove any tab part or add personal notes – all changes will be seen only by you.

Personal tabs can be accessed anytime from any device, even offline.
Learn more »
Give kudos to tab author, rate the tab!
1 2 3 4 5
comments
print report bad tab
guest
Wanna post a correction for this tab? Suggest correction