Oops, an error
Loading. Please wait.

El Cariño Que Perdí tab

version 2
version 2

Whole song

74 views 1 this week
no commentswrite comment
1 2 3 4 5
3 more votes to show rating
add to favorites
×
Save as Personal and add changes to this tab that will be seen only by you. Learn more ›
×
You can save this tab as Personal to edit and correct it or add notes. All changes will be seen only by you. Learn more »
launch autoscroll
font size
0
reset
how to read this tab
guitar tuner
edit
Autoscroll
slow
fast
+/-
esc
set tempo
stop
Intro de teclado:
                   G#m   A    B7       E
e|---------9-11-12-11---12-11-9-11-12-14-----|
B|-9-10-12-------------------------------12--|
G|-------------------------------------------|
D|-------------------------------------------|
A|-------------------------------------------|
E|-------------------------------------------|
   B7               E    C#7           F#m    B7                E
e|-9----------9-11--------------------9----------------------------|
B|---12-10-12------12---12-10-9-10-12---10---10-9----9-10-12-10-9--|
G|------------------------------------------------11---------------|
D|-----------------------------------------------------------------|
A|-----------------------------------------------------------------|
E|-----------------------------------------------------------------|

                   G#m
  El cariño que perdí
 A       B7         E  C#7-F#m
  nunca más regresará
         B7         E
  porque no la merecí
         C#7        F#m
  porque no le supe dar
         B7          E
  un poquito de mi vida.

    E                 G#m
  Cuando yo la vi partir
 A       B7     E      C#7-F#m
  no la supe detener
           B7           E
  hoy me apena este sufrir
        C#7        F#m
  y ya no podré vivir
             B7          E
  si es que ya no puedo verla.

           F#m                  B7
  Cuantas veces una lágrima le vi
                E
  rodando de sus ojos
            F#7
  cuántas veces su sonrisa disipó
                    B7
  lo cruel de mis enojos.

  E                G#m
  El cariño que perdí
 A       B7         E  C#7-F#m
  nunca más regresará
         B7         E
  porque no la merecí
         C#7        F#m
  porque no le supe dar
         B7          E
  un poquito de mi vida.


Interludio de teclado:
                   G#m   A    B7       E
e|---------9-11-12-11---12-11-9-11-12-14-----|
B|-9-10-12-------------------------------12--|
G|-------------------------------------------|
D|-------------------------------------------|
A|-------------------------------------------|
E|-------------------------------------------|
   B7               E    C#7           F#m    B7                E
e|-9----------9-11--------------------9----------------------------|
B|---12-10-12------12---12-10-9-10-12---10---10-9----9-10-12-10-9--|
G|------------------------------------------------11---------------|
D|-----------------------------------------------------------------|
A|-----------------------------------------------------------------|
E|-----------------------------------------------------------------|


           F#m                  B7
  Cuantas veces una lágrima le vi
                E
  rodando de sus ojos
            F#7
  cuántas veces su sonrisa disipó
                    B7
  lo cruel de mis enojos.


   E              G#m
  El cariño que perdí
 A       B7         E  C#7-F#m
  nunca más regresará
         B7         E
  porque no la merecí
         C#7        F#m
  porque no le supe dar
         B7          E
  un poquito de mi vida.


   E               G#m
  El cariño que perdí
 A       B7         E  C#7-F#m
  nunca más regresará.

 B7               E    C#7           F#m    B7                E
e|-9----------9-11--------------------9----------------------------|
B|---12-10-12------12---12-10-9-10-12---10---10-9----9-10-12-10-9--|
G|------------------------------------------------11---------------|
D|-----------------------------------------------------------------|
A|-----------------------------------------------------------------|
E|-----------------------------------------------------------------|


   E              G#m
  El cariño que perdí
 A       B7         E  C#7-F#m
  nunca más regresará.

            
            
Suggest correction
Creating personal tab
Creating personal tab
You can edit any tab online and save it as your Personal.

You can edit, replace or remove any tab part or add personal notes – all changes will be seen only by you.

Personal tabs can be accessed anytime from any device, even offline.
Learn more »
Give kudos to tab author, rate the tab!
1 2 3 4 5
comments
print report bad tab
guest
Wanna post a correction for this tab? Suggest correction