Oops, an error
Loading. Please wait.

No Sólo Respirar tab

version 3
version 3

Whole song

by La Fuga
79 views 1 this week
no commentswrite comment
1 2 3 4 5
3 more votes to show rating
add to favorites
×
Save as Personal and add changes to this tab that will be seen only by you. Learn more ›
×
You can save this tab as Personal to edit and correct it or add notes. All changes will be seen only by you. Learn more »
launch autoscroll
font size
0
reset
how to read this tab
guitar tuner
edit
Autoscroll
slow
fast
+/-
esc
set tempo
stop
Nueva canción de La Fuga de su nuevo disco?todo una perla!!

Comenzaría con un arpegio con estas posturas

  SIm*               SOL*                  LA*
---------         -----------          -----------
---------         -----------          -----------
-----4---         -----4-----          ----4------
---4---4-         ---4---4---          --4---4----
-2-------         -----------          -0---------
---------         -3---------          -----------


Intro:  SIm* SIm* SOL* LA* (x2)


SIm*       SOL*      SIm*    SIm*
    No tiraré de reproches
SOL*     LA*     SIm*   SIm*
Me basta con un adiós

--------------------------------------------------------------
--------------------------------------------------------------
-----6--------6----------4--------4--------6--------6---------
---7---7----7---7------5---5----5---5----7---7----7---7-------
-7--------7----------5--------5--------7--------7-------------
--------------------------------------------------------------
Se me atragantan tus noches               Tus días aún pe-

---------------------0-------------------------------------
-----3-------3---------3---3---2---0-----------------------
---2---2---2---2---------2---2---2-------------------------
-0-------0-------------------------------------------------
-----------------------------------------------------------
-----------------------------------------------------------
-or

SIm*         SOL*      SIm*      SIm*
     Quien es Caín quien es Abel

SOL*    LA*         SIm*   SIm*
Quien ha jodido este abril

------------------------------------------------------------------
------------------------------------------------------------------
--------6--------6----------4--------4--------6--------6----------
------7---7----7---7------5---5----5---5----7---7----7---7--------
----7--------7----------5--------5--------7--------7--------------
------------------------------------------------------------------
        En tus ojos      mil tormentas     Los míos no quieren-

---------------------
-----3-------3-------
---2---2---2---2-----
-0-------0-----------
---------------------
---------------------
-Abrir


Puente con distorsión: Re5  Do#5

Estribillo:


  SI5  SOL5                   RE5
Ya ves, cojo mi mala cara y me voy,
LA5        SI5
De aquí, no sé
SOL5                   RE5     RE5   (DO#5)
Las veces que me reinventé?

SI5     SOL5                     RE5   LA5
Dormir se antoja muy difícil si es ? sin ti
SI5    SOL5      RE5 LA5
No solo respirar, es vivir


Puente con rasgueo: Sim La (x4) La


Igual que las estrofas anteriores:

Vete apurando el mal trago
LA espesa conversación
Ya está todo gritado
Mejor para el corazón

Y ahora esta estrofa con las mismas notas pero
con el típico ritmillo de Fito(Cabrales):

Y que lo curen los años
Que lo alivie otros labios
Será mejor partir
Que desangrarnos


Estribillo


Más rápido y distorsión: punteo sobre  Si5  Sol5  Fa#5


SI5                    SOL5
Y he vuelto a ser el idiota
FA#5                SI5
Que llama de madrugada
                     SOL5
Para colgar sin decir nada
FA#5                    SI5      FA#5
A esas horas no hay palabras
SI5                      SOL5
Y te maldigo en mis canciones
RE5                          LA5
Porque no me atrevo a dar la cara
SI5                   SOL5
Y voy barriendo los rincones
FA#5      SI5
De mi alma

Punteo sobre misma base y final.

Dudas, consultas y sobre todo CONSEJOS a xirla_vhm@
Suggest correction
Creating personal tab
Creating personal tab
You can edit any tab online and save it as your Personal.

You can edit, replace or remove any tab part or add personal notes – all changes will be seen only by you.

Personal tabs can be accessed anytime from any device, even offline.
Learn more »
Give kudos to tab author, rate the tab!
1 2 3 4 5
comments
print report bad tab
guest
Wanna post a correction for this tab? Suggest correction