Oops, an error
Loading. Please wait.

El Salmón tab

version 2
version 2

Whole song

24 views 1 this week
no commentswrite comment
1 2 3 4 5
3 more votes to show rating
add to favorites
×
Save as Personal and add changes to this tab that will be seen only by you. Learn more ›
×
You can save this tab as Personal to edit and correct it or add notes. All changes will be seen only by you. Learn more »
launch autoscroll
font size
0
reset
how to read this tab
guitar tuner
edit
Autoscroll
slow
fast
+/-
esc
set tempo
stop
Intro:
                 ***Guitarra 1***

e|---/17~--|------------------|-------------------|-------------
B|---------|-7b~-----7--------|-7b~-----7---------|-------------
G|---------|-7b~--5--7--5-----|-7b~--5--7--5------|-------------
D|---------|--------------(7)-|--------------(7)--|-------------
A|---------|------------------|-------------------|-------------
E|---------|------------------|-------------------|-------------


---------------------------------------------------------------|
-7b~-----7----8/-10-8--------8/-10-(8)------0-3/-5-3-----------|
-7b~--5--7--5--------(9)---7------------0-2----------5-2/-(5)--|
------------------------7-9------------------------------------|
---------------------------------------------------------------|
---------------------------------------------------------------|

               ***Guitarra 2 en la Intro***

                          Riff1
  ***********************************************************
e|------------------------------|------------------------------|
B|------------------------------|------------------------------|
G|------------------7-7-5-7-(5)-|------------------7-7-5-7-(5)-|
D|--2-2-----2-------7-7-5-7-(5)-|--2-2-----2-------7-7-5-7-(5)-|
A|--0-0-3-3-0-------5-5-3-5-(3)-|--0-0-3-3-0-------5-5-3-5-(3)-|
E|------------3-4-5-------------|------------3-4-5-------------|


e|------------------------------|------------------------------|
B|------------------------------|------------------------------|
G|------------------7-7-5-7-(5)-|------------------------------|
D|--2-2-----2-------7-7-5-7-(5)-|-2-2-----2--------5-5-5-5-5-5-|
A|--0-0-3-3-0-------5-5-3-5-(3)-|-0-0-3-3-0--------5-5-5-5-5-5-|
E|------------3-4-5-------------|-----------0-3-5--3-3-3-3-3-3-|

   ***********************************************************

                    ***Bajo durante la intro***

G|-----------------------------|-------------------------------|
D|-----------------------------|-------------------------------|
A|-0-0-3-3-0-------5-5-3-5-(3)-|---0-0-3-3-0-----5-5-3-5-(3)---|
E|-----------3-4-5-------------|-3----------3-4-5--------------|


G|------------------------------|------------------------------|
D|------------------------------|------------------------------|
A|--0-0-3-3-0-------5-5-3-5-(3)-|---0-0-3-3-0------------------|
E|-3----------3-4-5-------------|-3-----------0-3-5--5/-10-10--|

--------------|
--------------|
--------------|
-10-10---3-3--|

****************************************************************

           Esta es la parte donde entran los instrumentos de
                             viento

                  ***Guitarra 2***
           C                       G
e|----------------------|----------------------|
B|----------------------|----------------------|
G|--5-x-5-5-5-x-5-5-5---|----------------------|
D|--5-x-5-5-5-x-5-5-5---|--5-x-5-5-5-x-5-5-5---|
A|--3-x-3-3-3-x-3-3-3---|--5-x-5-5-5-x-5-5-5---|
E|----------------------|--3-x-3-3-3-x-3-3-3---|

          A                        E
e|----------------------|----------------------|
B|----------------------|----------------------|
G|----------------------|----------------------|
D|--7-x-7-7-7-x-7-7-7---|----------------------|
A|--7-x-7-7-7-x-7-7-7---|--2-2-2-2-2-2-2-------|
E|--5-x-5-5-5-x-5-5-5---|--0-0-0-0-0-0-0-------|

          F                        G
e|----------------------|-----------------------|
B|----------------------|-----------------------|
G|----------------------|-----------------------|
D|--5-x-3-3-3-x-3-3-3---|--5-x-5-5-5-x-5-5-5----|
A|--5-x-3-3-3-x-3-3-3---|--5-x-5-5-5-x-5-5-5----|
E|--1-x-1-1-1-x-1-1-1---|--3-x-3-3-3-x-3-3-3----|


         C                    E + Riff 2
e|----------------------|----------------------|
B|----------------------|----------------------|
G|--5-x-5-5-5-x-5-5-5---|----------------------|
D|--5-x-5-5-5-x-5-5-5---|----------------------|
A|--3-x-3-3-3-x-3-3-3---|--2-2-2---------------|
E|----------------------|--0-0-0-(3)-----------|

                          Punteo junto con riff2

                           e|--10~--10~-|
                           B|-----------|
                           G|-----------|
                           D|-----------|
                           A|-----------|
                           E|-----------|

                     ***BaJo***
            C                 G                 A
G|-------------------|------------------|------------------|
D|-------------------|------------------|------------------|
A|--3-3-3-3-3-3-3----|------------------|------------------|
E|-------------------|-3-3-3-3-3-3-3----|-5-5-5-5-5-5-5----|

        E
G|-------------------|
D|-------------------|
A|-------------------|
E|--0-0-0-0-0-0-0----|

G|-------------------|------------------|---------------------|
D|-------------------|------------------|---------------------|
A|-------------------|------------------|---------------------|
E|--1-1-1-1-1-1-1----|-3-3-3-3-3-3-3----|--3/-8-8-8-8-8-8-8---|

------------|
------------|
------------|
--0-0-0-(3)-|

****************************************************************

                     Sigue la intro:

                     ***Guitarra 2***


e|------------------------------|------------------------------|
B|------------------------------|------------------------------|
G|------------------7-7-5-7-(5)-|------------------7-7-5-7-(5)-|
D|--2-2-----2-------7-7-5-7-(5)-|--2-2-----2-------7-7-5-7-(5)-|
A|--0-0-3-3-0-------5-5-3-5-(3)-|--0-0-3-3-0-------5-5-3-5-(3)-|
E|------------3-4-5-------------|------------3-4-5-------------|


e|------------------------------|------------------------------|
B|------------------------------|------------------------------|
G|------------------7-7-5-7-(5)-|------------------------------|
D|--2-2-----2-------7-7-5-7-(5)-|-2-2-----2--------5-5-5-5-5-5-|
A|--0-0-3-3-0-------5-5-3-5-(3)-|-0-0-3-3-0--------5-5-5-5-5-5-|
E|------------3-4-5-------------|-----------0-3-5--3-3-3-3-3-3-|


                          ***Bajo***

G|-----------------------------|-------------------------------|
D|-----------------------------|-------------------------------|
A|-0-0-3-3-0-------5-5-3-5-(3)-|---0-0-3-3-0-----5-5-3-5-(3)---|
E|-----------3-4-5-------------|-3----------3-4-5--------------|


G|------------------------------|------------------------------|
D|------------------------------|------------------------------|
A|--0-0-3-3-0-------5-5-3-5-(3)-|---0-0-3-3-0------------------|
E|-3----------3-4-5-------------|-3-----------0-3-5--5/-10-10--|

--------------|
--------------|
--------------|
-10-10---3-3--|

**************************************************************

                    ***Verso 1***

DO                       SOL
Quiero arreglar todo lo que hice mal
  LAm                  MIm
todo lo que escondí hasta de mí,
FA                  SOL
debo contar lo que yo solo sé.
  DO                    MI + Riff 2
Uh!Perdón Victor Sueiro también.

                    ***Verso 2***

DO                       SOL
Quiero arreglar todo lo que hice mal
  LAm                   MIm
todo lo que escondí hasta de mí,
FA                  SOL
debo contar lo que yo solo sé.
  DO                   MI + Riff 2
Uh!Perdón Ángel Cristo también.


                    ***Estribillo***

Para el estribillo Riff 1
********************************************
   LAm               SOL
se ve que para algo usé la cuchara,
   LAm               SOL
porque no encuentro sopa, postre ni ensalada.
   LAm               SOL
Hay botellas vacías de marcas extrañas,
   LAm               SOL
las debo haber tomado...que resaca.
**********************************************

                   ***Verso 3***

DO                     SOL
No pienso estar enero en Pinamar,
  LAm                  MIm
no me gusta el fantasma Yabrán,
FA                      SOL
que tentación, yo me voy al bolsón,
 DO                      MI + Riff 2
reservé por allí una gran suite.


                   ***Verso 4***

DO                     SOL
No pienso estar enero en Pinamar,
  LAm                  MIm
no me exita el fantasma Yabrán,
FA                      SOL
que tentación, yo me voy al bolsón,
 DO                      MI + Riff 2
reservé por allí una gran suite.

                ***Estribillo***
               (Igual al anterior)


   LAm                 SOL
Revisenme el aceite, el aire y el agua.
   LAm                 SOL
Revisenme a mi, el coche no tiene nada.
   LAm                 SOL
En esta ocasión voy a pedirles perdón,
   LAm                 SOL
soy rápido y es gratis...why not?

****************************************************************

                 ***Guitarra 2***
           C                       G
e|----------------------|----------------------|
B|----------------------|----------------------|
G|--5-x-5-5-5-x-5-5-5---|----------------------|
D|--5-x-5-5-5-x-5-5-5---|--5-x-5-5-5-x-5-5-5---|
A|--3-x-3-3-3-x-3-3-3---|--5-x-5-5-5-x-5-5-5---|
E|----------------------|--3-x-3-3-3-x-3-3-3---|

          A                        E
e|----------------------|----------------------|
B|----------------------|----------------------|
G|----------------------|----------------------|
D|--7-x-7-7-7-x-7-7-7---|----------------------|
A|--7-x-7-7-7-x-7-7-7---|--2-2-2-2-2-2-2-------|
E|--5-x-5-5-5-x-5-5-5---|--0-0-0-0-0-0-0-------|

          F                        G
e|----------------------|-----------------------|
B|----------------------|-----------------------|
G|----------------------|-----------------------|
D|--5-x-3-3-3-x-3-3-3---|--5-x-5-5-5-x-5-5-5----|
A|--5-x-3-3-3-x-3-3-3---|--5-x-5-5-5-x-5-5-5----|
E|--1-x-1-1-1-x-1-1-1---|--3-x-3-3-3-x-3-3-3----|


         C                    E + Riff 2
e|----------------------|----------------------|
B|----------------------|----------------------|
G|--5-x-5-5-5-x-5-5-5---|----------------------|
D|--5-x-5-5-5-x-5-5-5---|----------------------|
A|--3-x-3-3-3-x-3-3-3---|--2-2-2---------------|
E|----------------------|--0-0-0-(3)-----------|

                          Punteo junto con riff2

                           e|--10~--10~-|
                           B|-----------|
                           G|-----------|
                           D|-----------|
                           A|-----------|
                           E|-----------|

                     ***BaJo***
            C                 G                 A
G|-------------------|------------------|------------------|
D|-------------------|------------------|------------------|
A|--3-3-3-3-3-3-3----|------------------|------------------|
E|-------------------|-3-3-3-3-3-3-3----|-5-5-5-5-5-5-5----|

        E
G|-------------------|
D|-------------------|
A|-------------------|
E|--0-0-0-0-0-0-0----|

G|-------------------|------------------|---------------------|
D|-------------------|------------------|---------------------|
A|-------------------|------------------|---------------------|
E|--1-1-1-1-1-1-1----|-3-3-3-3-3-3-3----|--3/-8-8-8-8-8-8-8---|

------------|
------------|
------------|
--0-0-0-(3)-|

****************************************************************

                        ***Solo***
                      ***Guitarra 1***


e|-------5------------------------------------------------------
B|------------6/--(9~)--10---8-8-----10b~--8-8------------------
G|--6/-7---7------------10---8-8-----10b~--8-8------------------
D|-------------------------------10------------10---------------
A|--------------------------------------------------------------
E|--------------------------------------------------------------

----------------------------------------------------------------
---------------8----8b~-8b~-------------------------------------
---------------8----8b~-8b~-------10--8-------------------------
--10-8----8------10---------10-8---------10--(7)----------------
-------10---10--------------------------------------------------
----------------------------------------------------------------


-----------15b~----15b~----15b~----15b~----15b~----15b~---------
--14/--15b~----15b~----15b~----15b~----15b~----15b~----15b~-----
----------------------------------------------------------------
----------------------------------------------------------------
----------------------------------------------------------------
----------------------------------------------------------------

--15b~----(15b~)--(19~)-|
------15b~----~---------|
------------------------|
------------------------|
------------------------|
------------------------|

               ***Guitarra 2 durante el solo***


e|---------------------------------------------------|
B|---------------------------------------------------|
G|---------------------------------------------------|
D|--5/-7-7---5/-7-7---5--7---------------------------|
A|--5/-7-7---5/-7-7---5--7-----------------(10)------|
E|--3/-5-5---3/-5-5---3-(5)----10-10-10-10--(8)------|


e|---------------------------------------------------|
B|---------------------------------------------------|
G|---------------------------------------------------|
D|--5/-7-7---5/-7-7---5--7---------------------------|
A|--5/-7-7---5/-7-7---5--7-----------------(10)------|
E|--3/-5-5---3/-5-5---3-(5)----10-10-10-10--(8)------|


e|---------------------------------------------------|
B|---------------------------------------------------|
G|---------------------------------------------------|
D|--5/-7-7---5/-7-7---5--7---------------------------|
A|--5/-7-7---5/-7-7---5--7-----------------(10)------|
E|--3/-5-5---3/-5-5---3-(5)----10-10-10-10--(8)------|


e|---------------------------------------------------|
B|---------------------------------------------------|
G|---------------------------------------------------|
D|--5/-7-7---5/-7-7---5--7-------------------5-5-5---|
A|--5/-7-7---5/-7-7---5--7-------------------5-5-5---|
E|--3/-5-5---3/-5-5---3-(5)----10-10-10-10---3-3-3---|

                    ***Bajo***
                  (Hace lo mismo)

****************************************************************

                   ***Verso 5***

DO + Riff B              SOL
Siempre seguí la misma dirección,
   LAm                   MIm   + Riff A
la difícil, la que usa el salmón.
FA               SOL
Siento llegar al vacío total,
   DO                 MI + Riff 2
de tu mano me voy a soltar.

                   ***Verso 6***

DO                    SOL
Siempre seguí la misma dirección,
   LAm                   MIm
la difícil, la que usa el salmón.
FA               SOL
Siento llegar al vacío total,
   DO                 MI + Riff 2
de tu mano me voy a soltar


DO                       SOL
Dame, dame, dame un poco de tu amor,
    LAm                      MIm
yo a cambio te ofrezco una montaña de horror.
FA               SOL
Dame un poco de tu amor, amor.
DO             MI + Riff 2
Dame un poco de amor!!

****************************************************************

               ***Guitarra 2 antes del final***

                 DaMe Un PoCo De AmOr!!! (bis)


e|------------------------------|------------------------------|
B|------------------------------|------------------------------|
G|------------------7-7-5-7-(5)-|------------------7-7-5-7-(5)-|
D|--2-2-----2-------7-7-5-7-(5)-|--2-2-----2-------7-7-5-7-(5)-|
A|--0-0-3-3-0-------5-5-3-5-(3)-|--0-0-3-3-0-------5-5-3-5-(3)-|
E|------------3-4-5-------------|------------3-4-5-------------|


e|------------------------------|------------------------------|
B|------------------------------|------------------------------|
G|------------------7-7-5-7-(5)-|-----------------7-7-5-7------|
D|--2-2-----2-------7-7-5-7-(5)-|-2-2-----2-------7-7-5-7--2-2-|
A|--0-0-3-3-0-------5-5-3-5-(3)-|-0-0-3-3-0-------5-5-3-5--0-0-|
E|------------3-4-5-------------|-----------0-3-5--------------|

                          Fin!

****************************************************************

 ***Guitarra 2 antes del final***

e|------5----5----5---------------|
B|---7b~--7b~--7b~--7b~-----------|
G|---7b~--7b~--7b~--7b~--5--------|
D|-------------------------7------|
A|--------------------------------|
E|--------------------------------|
****************************************************************

***Arreglos para el bajo en los ultimos versos***

         Riff A               Riff B
G|-----------------------|--------------------------|
D|-----------------------|---------------3----------|
A|-----------2-2--4--2---|--3-3-3-3-3/-5---5--3-----|
E|--0-0--4-4-------------|----------------------3---|

****************************************************************

Bueno eso es todo...es facil le van
a agarrar la mano al toque....
saludos...


                      ***NoE Te AmoO!***

            
            
Suggest correction
Creating personal tab
Creating personal tab
You can edit any tab online and save it as your Personal.

You can edit, replace or remove any tab part or add personal notes – all changes will be seen only by you.

Personal tabs can be accessed anytime from any device, even offline.
Learn more »
Give kudos to tab author, rate the tab!
1 2 3 4 5
comments
print report bad tab
guest
Wanna post a correction for this tab? Suggest correction