Oops, an error
Loading. Please wait.

Pabellón Séptimo tab

version 3
version 3

Whole song

67 views 1 this week
no commentswrite comment
1 2 3 4 5
3 more votes to show rating
add to favorites
×
Save as Personal and add changes to this tab that will be seen only by you. Learn more ›
×
You can save this tab as Personal to edit and correct it or add notes. All changes will be seen only by you. Learn more »
launch autoscroll
font size
0
reset
how to read this tab
guitar tuner
edit
Autoscroll
slow
fast
+/-
esc
set tempo
stop
INTRO:

   D#5     C#5   Bb5    D#5     C#5   Bb5  D#5      C#5  D#5
E|-------------------|-------------------|-------------------|
B|--4-4-4-4----------|--4-4-4-4----------|-------------------|
G|----------6-6-6-3--|----------6-6-6-3--|--8--------6----8--|  X2
D|-------------------|-------------------|--8--------6----8--|
A|-------------------|-------------------|--6--------4----6--|
E|-------------------|-------------------|-------------------|


E|-------------------|-------------------|--13h16h13-----------|-------------------|-------------------|-------------------|
B|--16---14------14--|-16^-16^---16--14--|-----------16h14-----|-------------------|-------------------|-------------------|
G|------------15-----|-------------------|-----------------15\-|--13h15h13--13--13-|-131313---13h15h13-|---13-13131313--13-|
D|-------------------|-------------------|---------------------|----------15-------|-------------------|-15----------------|
A|-------------------|-------------------|---------------------|-------------------|-------------------|-------------------|
E|-------------------|-------------------|---------------------|-------------------|-------------------|-------------------|


E|-------------------|-------------------|-------------------|-------------------|-------------------|-------------------|
B|-------------------|--16^----16-14-----|--16^16^-16-14-----|-------------------|-------------------|-------------------|
G|-13131313-13-------|---------------15~-|---------------15~-|-15151515-15151515-|-151515-15151515---|-15151515-151515---|
D|-------------------|-------------------|-------------------|-15151515-15151515-|-151515-15151515---|-15151515-151515---|
A|-------------------|-------------------|-------------------|-------------------|-------------------|-------------------|
E|-------------------|-------------------|-------------------|-------------------|-------------------|-------------------|


    VERSOS

  Me asfixio! Dios!  Pienso en mi cara... se esta quemando ahora mi cara... Dios!

    E|-------------------|-------------------|-------------------|
    B|--4-4-4-4----------|--4-4-4-4----------|-------------------|
G1  G|----------6-6-6-3--|----------6-6-6-3--|--8--------6----8--|
    D|-------------------|-------------------|--8--------6----8--|
    A|-------------------|-------------------|--6--------4----6--|
    E|-------------------|-------------------|-------------------|


    E|-------------------|-------------------|-------------------|
    B|-------------------|-------------------|-------------------|
G2  G|-------------------|-------------------|--8-(8)----6----8--|
    D|-------------------|-------------------|--8-(8)----6----8--|
    A|-------------------|-------------------|--6-(6)----4----6--|
    E|-------------------|-------------------|-------------------|


  Una explosion y los colchones se prenden fuego y nos quemamos vivos...

    E|-------------------|-------------------|--------------------|--------------------|
    B|--4-4-4-4----------|--4-4-4-4----------|--------------------|--------------------|
G1  G|----------6-6-6-3--|----------6-6-6-3--|--8--------6----8---|--(8)---------------|
    D|-------------------|-------------------|--6--------6----6---|--(8)---------------|
    A|-------------------|-------------------|--6--------4----6---|--(6)---------------|
    E|-------------------|-------------------|--------------------|--------------------|


    E|-------------------|-------------------|--------------------|--------------------|
    B|-------------------|-------------------|--------------------|--------------------|
G2  G|-------------------|-------------------|--6h4-6-5-5h6-6h5---|--6h4-6-5-5h6-6h5---|
    D|-------------------|-------------------|------------------8-|------------------8-|
    A|-------------------|-------------------|--------------------|--------------------|
    E|-------------------|-------------------|--------------------|--------------------|


    Quiero salir, quiero escapar, las puertas siguen encerrojadas.

    E|-------------------|-------------------|--------------------|
    B|--4-4-4-4----------|--4-4-4-4----------|--------------------|
G1  G|----------6-6-6-3--|----------6-6-6-3--|--8---------6----8--|
    D|-------------------|-------------------|--8---------6----8--|
    A|-------------------|-------------------|--6---------4----6--|
    E|-------------------|-------------------|--------------------|


    E|-------------------|-------------------|--------------------|
    B|--9-----8-----6~---|--9-----8-----6~---|--------------------|
G2  G|-------------------|-------------------|--8-(8)-----6----8--|
    D|-------------------|-------------------|--8-(8)-----6----8--|
    A|-------------------|-------------------|--6-(6)-----4----6--|
    E|-------------------|-------------------|--------------------|


      El pabellon... en un segundo se nublo todo y ya no vemos nada mas...

    E|-------------------|-------------------|--------------------|--------------------|
    B|--4-4-4-4----------|--4-4-4-4----------|--------------------|--------------------|
G1  G|----------6-6-6-3--|----------6-6-6-3--|--8---------6----8--|--(8)---------------|
    D|-------------------|-------------------|--8---------6----8--|--(8)---------------|
    A|-------------------|-------------------|--6---------4----6--|--(6)---------------|
    E|-------------------|-------------------|--------------------|--------------------|


    E|-------------------|-------------------|--------------------|--------------------|
    B|----9---8-----6~---|----9---8-----6~---|--------------------|--------------------|
G2  G|-------------------|-------------------|--6h8-6-5-5h6-6h5---|--6h8-6-5-5h6-6h5---|
    D|-------------------|-------------------|------------------8-|------------------8-|
    A|-------------------|-------------------|--------------------|--------------------|
    E|-------------------|-------------------|--------------------|--------------------|


     Pruebo trepar hasta un ventanal buscando el aire y me balena fiero


    E|-------------------|-------------------|-------------------|-------------------|
    B|-------------------|-------------------|-------------------|-------------------|
G1  G|-------------------|-------------------|-------------------|-------------------|
    D|--4-4-4-4-4-4-4-4--|--4-4-4-4-4-4-4-4--|--8-8-8-8-8-8-8-8--|--8-8-8-8-8-8-8-8--|
    A|--4-4-4-4-4-4-4-4--|--4-4-4-4-4-4-4-4--|--8-8-8-8-8-8-8-8--|--8-8-8-8-8-8-8-8--|
    E|--2-2-2-2-2-2-2-2--|--2-2-2-2-2-2-2-2--|--6-6-6-6-6-6-6-6--|--6-6-6-6-6-6-6-6--|


    E|-------------------|-------------------|----(18)-----------|-------------------|
    B|-------------------|-------------------|-------------------|-------------------|
G2  G|-------------------|-------------------|-------------------|-------------------|
    D|-------------------|-------------------|-------------------|-------------------|
    A|-------------------|-------------------|-------------------|-------------------|
    E|-------------------|-------------------|-------------------|-------------------|


     Viejita, amor, hijas y amigas, buscan noticias en la puerta, ahi fuera...


    E|-------------------|-------------------|-------------------|-------------------|
    B|-------------------|-------------------|-------------------|-------------------|
G1  G|-------------------|-------------------|-------------------|-------------------|
    D|--4-4-4-4-4-4-4-4--|--4-4-4-4-4-4-4-4--|--8-8-8-8-8-8-8-8--|--8-8-8-8-8-8-8-8--|
    A|--4-4-4-4-4-4-4-4--|--4-4-4-4-4-4-4-4--|--8-8-8-8-8-8-8-8--|--8-8-8-8-8-8-8-8--|
    E|--2-2-2-2-2-2-2-2--|--2-2-2-2-2-2-2-2--|--6-6-6-6-6-6-6-6--|--6-6-6-6-6-6-6-6--|


    E|-------------------|---------(18)------|-------------------|-------------------|
    B|---(16~)------16^--|--16^---------16---|-------------------|-------------------|
G2  G|-------------------|-------------------|-------------------|-------------------|
    D|-------------------|-------------------|-------------------|-------------------|
    A|-------------------|-------------------|-------------------|-------------------|
    E|-------------------|-------------------|-------------------|-------------------|


    Tiempo despues, escucho aun el ruido loco de los paloteros

    E|-------------------|-------------------|--------------------|-------------------|
    B|--4-4-4-4----------|--4-4-4-4----------|--------------------|-------------------|
G1  G|----------6-6-6-3--|----------6-6-6-3--|--8--------6----8---|-(8)---------------|
    D|-------------------|-------------------|--8--------6----8---|-(8)---------------|
    A|-------------------|-------------------|--6--------4----6---|-(6)---------------|
    E|-------------------|-------------------|--------------------|-------------------|


    E|-------------------|-------------------|--------------------|--------------------|
    B|----9---8-----6~---|----9---8-----6~---|--------------------|--------------------|
G2  G|-------------------|-------------------|--6h8-6-5-5h6-6h5---|--6h8-6-5-5h6-6h5---|
    D|-------------------|-------------------|------------------8-|------------------8-|
    A|-------------------|-------------------|--------------------|--------------------|
    E|-------------------|-------------------|--------------------|--------------------|


     Buscan asi baldosas flojas donde escondemos tesoro y misera

    E|-------------------|-------------------|--------------------|-------------------|
    B|--4-4-4-4----------|--4-4-4-4----------|--------------------|-------------------|
G1  G|----------6-6-6-3--|----------6-6-6-3--|--8--------6----8---|-(8)---------------|
    D|-------------------|-------------------|--8--------6----8---|-(8)---------------|
    A|-------------------|-------------------|--6--------4----6---|-(6)---------------|
    E|-------------------|-------------------|--------------------|-------------------|


    E|-------------------|-------------------|--------------------|--------------------|
    B|----9---8-----6~---|----9---8-----6~---|--------------------|--------------------|
G2  G|-------------------|-------------------|--6h8-6-5-5h6-6h5---|--6h8-6-5-5h6-6h5---|
    D|-------------------|-------------------|------------------8-|------------------8-|
    A|-------------------|-------------------|--------------------|--------------------|
    E|-------------------|-------------------|--------------------|--------------------|


    Pobresito!... pobre 'el Cebolla', no puedo mas, se degollo por miedo.


    E|-------------------|-------------------|-------------------|-------------------|
    B|-------------------|-------------------|-------------------|-------------------|
G1  G|-------------------|-------------------|-------------------|-------------------|
    D|--4-4-4-4-4-4-4-4--|--4-4-4-4-4-4-4-4--|--8-8-8-8-8-8-8-8--|--8-8-8-8-8-8-8-8--|
    A|--4-4-4-4-4-4-4-4--|--4-4-4-4-4-4-4-4--|--8-8-8-8-8-8-8-8--|--8-8-8-8-8-8-8-8--|
    E|--2-2-2-2-2-2-2-2--|--2-2-2-2-2-2-2-2--|--6-6-6-6-6-6-6-6--|--6-6-6-6-6-6-6-6--|


    E|-------------------|-------------------|----(18)-----------|-------------------|
    B|-------------------|-------------------|-------------------|-------------------|
G2  G|-------------------|-------------------|-------------------|-------------------|
    D|-------------------|-------------------|-------------------|-------------------|
    A|-------------------|-------------------|-------------------|-------------------|
    E|-------------------|-------------------|-------------------|-------------------|


    Nadie es capaz (no pueden borrar mis recuerdos!) Nadie es capaz de matarte en mi alma.

    E|-------------------|-------------------|-------------------|-------------------|
    B|-------------------|-------------------|-------------------|-------------------|
G1  G|-------------------|-------------------|-------------------|-------------------|
    D|--4-4-4-4-4-4-4-4--|--4-4-4-4-4-4-4-4--|--8-8-8-8-8-8-8-8--|--8-8-8-8-8-8-8-8--|
    A|--4-4-4-4-4-4-4-4--|--4-4-4-4-4-4-4-4--|--8-8-8-8-8-8-8-8--|--8-8-8-8-8-8-8-8--|
    E|--2-2-2-2-2-2-2-2--|--2-2-2-2-2-2-2-2--|--6-6-6-6-6-6-6-6--|--6-6-6-6-6-6-6-6--|


    E|-------------------|---------(18)------|-------------------|-------------------|
    B|---(16~)------16^--|--16^---------16---|-------------------|-------------------|
G2  G|-------------------|-------------------|-------------------|-------------------|
    D|-------------------|-------------------|-------------------|-------------------|
    A|-------------------|-------------------|-------------------|-------------------|
    E|-------------------|-------------------|-------------------|-------------------|


SOLO:

    E|---------------|--------------|-------------------|--------------------|--------------|------6---6--6-|
    B|--11-10-8-6-8~-|-11-10-8-6-8~-|---3-4-3h4h3-------|---3-4-3h4h3---4/6~-|--8--8-6---8--|--7h8---8---(8)|
    G|---------------|--------------|-3------------3----|-3-----------3------|---------8----|---------------|
    D|---------------|--------------|----------------3~-|--------------------|--------------|---------------|
    A|---------------|--------------|-------------------|--------------------|--------------|---------------|
    E|---------------|--------------|-------------------|--------------------|--------------|---------------|

    E|---------------|--------------|------------------------|--------------------|---------------|-------------------|
    B|----6---4---3~-|-------11-13--|-13^-13^-13^ 11----11~~-|-(8)(6)(8)--11~~----|--18^-18-16-15-|-------18-15-16-15-|
    G|-6/7---5---3---|-9/10---------|----------------12------|------------12~~----|---------------|-17-15-------------|
    D|---------------|--------------|------------------------|--------------------|---------------|-------------------|
    A|---------------|--------------|------------------------|--------------------|---------------|-------------------|
    E|---------------|--------------|------------------------|--------------------|---------------|-------------------|

    E|-----------------|-------------|------------------|-------------|--------------------|
    B|-------(15)-(15)-|-18-15-16-15-|-------15-18-(15)-|-18-15-16-15-|-------15-18--15~~--|
    G|-17-15-(15)------|-------------|-17-15--------15--|-------------|-17-15--------15~~--|
    D|-----------------|-------------|------------------|-------------|--------------------|
    A|-----------------|-------------|------------------|-------------|--------------------|
    E|-----------------|-------------|------------------|-------------|--------------------|


     Y asi te dan! Asi te quiebran! Asi te dan por culo alli... sin mas.

    E|-------------------|-------------------|-------------------|-------------------|
    B|-------------------|-------------------|-------------------|-------------------|
G1  G|-------------------|-------------------|-------------------|-------------------|
    D|--4-4-4-4-4-4-4-4--|--4-4-4-4-4-4-4-4--|--8-8-8-8-8-8-8-8--|--8-8-8-8-8-8-8-8--|
    A|--4-4-4-4-4-4-4-4--|--4-4-4-4-4-4-4-4--|--8-8-8-8-8-8-8-8--|--8-8-8-8-8-8-8-8--|
    E|--2-2-2-2-2-2-2-2--|--2-2-2-2-2-2-2-2--|--6-6-6-6-6-6-6-6--|--6-6-6-6-6-6-6-6--|


    E|-------------------|---------(18)------|-------------------|-------------------|
    B|---(16~)------16^--|--16^---------16---|-------------------|-------------------|
G2  G|-------------------|-------------------|-------------------|-------------------|
    D|-------------------|-------------------|-------------------|-------------------|
    A|-------------------|-------------------|-------------------|-------------------|
    E|-------------------|-------------------|-------------------|-------------------|


     Por esa vez la Vieja Cosechera vino por mi y no quiso besar mi vida

    E|-------------------|-------------------|-------------------|-------------------|
    B|-------------------|-------------------|-------------------|-------------------|
G1  G|-------------------|-------------------|-------------------|-------------------|
    D|--4-4-4-4-4-4-4-4--|--4-4-4-4-4-4-4-4--|--8-8-8-8-8-8-8-8--|--8-8-8-8-8-8-8-8--|
    A|--4-4-4-4-4-4-4-4--|--4-4-4-4-4-4-4-4--|--8-8-8-8-8-8-8-8--|--8-8-8-8-8-8-8-8--|
    E|--2-2-2-2-2-2-2-2--|--2-2-2-2-2-2-2-2--|--6-6-6-6-6-6-6-6--|--6-6-6-6-6-6-6-6--|


    E|-------------------|-------------------|----(18)-----------|-------------------|
    B|-------------------|-------------------|-------------------|-------------------|
G2  G|-------------------|-------------------|-------------------|-------------------|
    D|-------------------|-------------------|-------------------|-------------------|
    A|-------------------|-------------------|-------------------|-------------------|
    E|-------------------|-------------------|-------------------|-------------------|


      Estoy herido, estoy quemado voy en camilla por el Salaberry

    E|-------------------|-------------------|--------------------|-------------------|
    B|--4-4-4-4----------|--4-4-4-4----------|--------------------|-------------------|
G1  G|----------6-6-6-3--|----------6-6-6-3--|--8--------6----8---|-(8)---------------|
    D|-------------------|-------------------|--8--------6----8---|-(8)---------------|
    A|-------------------|-------------------|--6--------4----6---|-(6)---------------|
    E|-------------------|-------------------|--------------------|-------------------|


    E|-------------------|-------------------|--------------------|--------------------|
    B|-------------------|-------------------|--------------------|--------------------|
G2  G|-------------------|-------------------|--6h8-6-5-5h6-6h5---|--6h8-6-5-5h6-6h5---|
    D|-------------------|-------------------|------------------8-|------------------8-|
    A|-------------------|-------------------|--------------------|--------------------|
    E|-------------------|-------------------|--------------------|--------------------|


      Voy a tratar de hacer conducta aqui para rajar antes que mis pulmones.

    E|-------------------|-------------------|--------------------|--------------------|
    B|--4-4-4-4----------|--4-4-4-4----------|--------------------|--------------------|
G1  G|----------6-6-6-3--|----------6-6-6-3--|--8--------6----8---|-(8)----------------|
    D|-------------------|-------------------|--8--------6----8---|-(8)----------------|
    A|-------------------|-------------------|--6--------4----6---|-(6)----------------|
    E|-------------------|-------------------|--------------------|--------------------|


    E|-------------------|-------------------|--------------------|--------------------|
    B|-------------------|-------------------|--------------------|--------------------|
G2  G|-------------------|-------------------|--6h8-6-5-5h6-6h5---|--6h8-6-5-5h6-6h5---|
    D|-------------------|-------------------|------------------8-|------------------8-|
    A|-------------------|-------------------|--------------------|--------------------|
    E|-------------------|-------------------|--------------------|--------------------|


      Si va a pasar al conmigo quiero que sea en libertad... alla afuera!

    E|-------------------|-------------------|--------------------|--------------------|
    B|--4-4-4-4----------|--4-4-4-4----------|--------------------|--------------------|
G1  G|----------6-6-6-3--|----------6-6-6-3--|--8-------------8---|-(8)----------------|
    D|-------------------|-------------------|--8-------------8---|-(8)----------------|
    A|-------------------|-------------------|--6-------------6---|-(6)----------------|
    E|-------------------|-------------------|--------------------|--------------------|


    E|-------------------|-------------------|--------------------|--------------------|
    B|-------------------|-------------------|--------------------|--------------------|
G2  G|-------------------|-------------------|--------------------|--------------------|
    D|-------------------|-------------------|--------------------|--------------------|
    A|-------------------|-------------------|--------------------|--------------------|
    E|-------------------|-------------------|--------------------|--------------------|


     Y  nada mas! irme y nada mas! no quiero ver mas gruesa de llavero

    E|-------------------|-------------------|-------------------|-------------------|
    B|-------------------|-------------------|-------------------|-------------------|
G1  G|-------------------|-------------------|-------------------|-------------------|
    D|--4-4-4-4-4-4-4-4--|--4-4-4-4-4-4-4-4--|--8-8-8-8-8-8-8-8--|--8-8-8-8-8-8-8-8--|
    A|--4-4-4-4-4-4-4-4--|--4-4-4-4-4-4-4-4--|--8-8-8-8-8-8-8-8--|--8-8-8-8-8-8-8-8--|
    E|--2-2-2-2-2-2-2-2--|--2-2-2-2-2-2-2-2--|--6-6-6-6-6-6-6-6--|--6-6-6-6-6-6-6-6--|


    E|-------------------|-------------------|----(18)-----------|-------------------|
    B|-------------------|-------------------|-------------------|-------------------|
G2  G|-------------------|-------------------|-------------------|-------------------|
    D|-------------------|-------------------|-------------------|-------------------|
    A|-------------------|-------------------|-------------------|-------------------|
    E|-------------------|-------------------|-------------------|-------------------|


     Ni mirar la pared si el pasarela grita para tapar quejidos y lamentos

    E|-------------------|-------------------|-------------------|-------------------|
    B|-------------------|-------------------|-------------------|-------------------|
G1  G|-------------------|-------------------|-------------------|-------------------|
    D|--4-4-4-4-4-4-4-4--|--4-4-4-4-4-4-4-4--|--8-8-8-8-8-8-8-8--|--8-8-8-8-8-8-8-8--|
    A|--4-4-4-4-4-4-4-4--|--4-4-4-4-4-4-4-4--|--8-8-8-8-8-8-8-8--|--8-8-8-8-8-8-8-8--|
    E|--2-2-2-2-2-2-2-2--|--2-2-2-2-2-2-2-2--|--6-6-6-6-6-6-6-6--|--6-6-6-6-6-6-6-6--|


    E|-------------------|---------(18)------|--13h16h13-----------|-------------------|-------------------|-------------------|
    B|---(16~)------16^--|--16^---------16---|-----------16h14-----|-------------------|-------------------|-------------------|
G2  G|-------------------|-------------------|-----------------15\-|--13h15h13--13--13-|-131313---13h15h13-|---13-13131313--13-|
    D|-------------------|-------------------|---------------------|----------15-------|-------------------|-15----------------|
    A|-------------------|-------------------|---------------------|-------------------|-------------------|-------------------|
    E|-------------------|-------------------|---------------------|-------------------|-------------------|-------------------|


     Ya nunca mas!  Ya nunca mas! Y nunca ya voy a olvidarte, Pablo... nunca!

    E|-------------------|-------------------|-------------------|-------------------|
    B|-------------------|-------------------|-------------------|-------------------|
G1  G|-------------------|-------------------|-------------------|-------------------|
    D|--4-4-4-4-4-4-4-4--|--4-4-4-4-4-4-4-4--|--8-8-8-8-8-8-8-8--|--8-8-8-8-8-8-8-8--|
    A|--4-4-4-4-4-4-4-4--|--4-4-4-4-4-4-4-4--|--8-8-8-8-8-8-8-8--|--8-8-8-8-8-8-8-8--|
    E|--2-2-2-2-2-2-2-2--|--2-2-2-2-2-2-2-2--|--6-6-6-6-6-6-6-6--|--6-6-6-6-6-6-6-6--|


    E|-------------------|-------------------|----(18)-----------|-------------------|
    B|-------------------|-------------------|-------------------|-------------------|
G2  G|-------------------|-------------------|-------------------|-------------------|
    D|-------------------|-------------------|-------------------|-------------------|
    A|-------------------|-------------------|-------------------|-------------------|
    E|-------------------|-------------------|-------------------|-------------------|


    E|--6-6---4---6--|
    B|--6-6---4---6--|
    G|--6-6---5---7--|
    D|--8-8---6---8--|
    A|--8-8---6---8--|
    E|--6-6---4---6--|


                               FIN


Cualquier duda manden un mail a vamos-las-bandas@
  Aguante los redondos!!!

            
            
Suggest correction
Creating personal tab
Creating personal tab
You can edit any tab online and save it as your Personal.

You can edit, replace or remove any tab part or add personal notes – all changes will be seen only by you.

Personal tabs can be accessed anytime from any device, even offline.
Learn more »
Give kudos to tab author, rate the tab!
1 2 3 4 5
comments
print report bad tab
guest
Wanna post a correction for this tab? Suggest correction