Oops, an error
Loading. Please wait.

Pedía Siempre Temas En La Radio tab

version 2
version 2

Whole song

14 views 1 this week
no commentswrite comment
1 2 3 4 5
3 more votes to show rating
add to favorites
×
Save as Personal and add changes to this tab that will be seen only by you. Learn more ›
×
You can save this tab as Personal to edit and correct it or add notes. All changes will be seen only by you. Learn more »
launch autoscroll
font size
0
reset
how to read this tab
guitar tuner
edit
Autoscroll
slow
fast
+/-
esc
set tempo
stop
La onda vá asi:

Intro:
       E5
e|----------------|-------|--||
b|----------------|-------|--||
g|-9-9-x-x-9--9-9-|-------|--||
d|-9-9-x-x-9--9-9-|-------|x4||
a|-7-7-x-x-7--7-7-|-----7-|--||
E|----------------|-7-10--|--||

Y viene el Riff PALA:
   E5                   B5
e|------------------------------|--||
b|------------------------------|--||
g|-7h9p7------------------------|--||
d|-------9p7--------------------|x4||
a|-----------10-7--------------7|--||
E|----------------10-7--7-7-10--|--||

Verso:
(se repite esta base de fondo)
         Base
e|--------|--------|--||
b|--------|--------|--||
g|--------|--------|--||
d|-------7|--------|x2||
a|7-7--9--|-7-7--9-|--||
E|--------|-------7|--||
E5
No, no, ciego en la bruma
B5           D5      B5
Bellamente sangra su nariz
E5
Van a tragarlo arenas movedizas
B5           D5      B5
Pagará caro lo tonto que fue

Estribillo:
(Todo sobre el riff)
E5             B5
Un tipo remilgado
E5             B5
Un garabato que
E5                   B5
Fué de los juguetones
E5                   B5
Y es el pingüino más gil

Verso:
(También con base de fondo)
E5
Trabe, zonzo, cachivache
B5            D5        B5
Con el tiempo la reja comió
E5
Pedía siempre temas en la radio
B5         D5       B5
Y nunca los quería oír

Estribillo:
(También sobre Riff)
E5                  B5
Un espantajo turbio
E5                B5
Un despiadado más
E5                B5
Caníbal de opereta
E5               B5
Pedazo de pendejo

Puente:
E5
No salió nada de él
                  B5
Nada en los diarios
E5
No se habló nunca del
           B5
infeliz, nada.

Solo:
(Sobre pentatónica de B menor)

E5
Condenado a no ser
             B5
Titular nunca
E5
De un momento estelar
               B5
Nada en los diarios

Estribillo:
(Sobre Riff Again)
E5                B5
Pudo vivir con eso
E5                 B5
Sólo un tiempito más
E5               B5
Luego se puso ciego
E5                B5
La bruma se lo tragó

Segundo Solo:
(Con la base de fondo)
e|-----------------------------------------------(fadeout)||
b|----10/12-10----12h14-12-10--------10-9--10-9--(fadeout)||
g|13~----------14~-----------13-11-9-----9-----9-(fadeout)||
d|-----------------------------------------------(fadeout)||
a|-----------------------------------------------(fadeout)||
E|-----------------------------------------------(fadeout)||

Estribillo:
(Sobre Riff nueevamente)
E5                B5
Mucho puntaje bajo
E5                B5
Nada esperanzador
E5                     B5
Si se le incendia el culo
E5                  B5
El no lo sabe apagar

Verso:
E5
No, no, sueño con presagios
B5          D5          B5
Una tragedia le quiere montar
E5
Todos la vemos en sus ojos muertos
B5         D5     B5
Muestra su mala señal.

Muestra su mala señal...


El solo del medio no lo saqué porque realmente todo esto lo hago
con una viola criolla y ustedes saben, jejeje.
Las guitarras de atras son realmente muy rebuscadas y no daba
subirlas, pero si quieren las subo..

Saludos

            
            
Suggest correction
Creating personal tab
Creating personal tab
You can edit any tab online and save it as your Personal.

You can edit, replace or remove any tab part or add personal notes – all changes will be seen only by you.

Personal tabs can be accessed anytime from any device, even offline.
Learn more »
Give kudos to tab author, rate the tab!
1 2 3 4 5
comments
print report bad tab
guest
Wanna post a correction for this tab? Suggest correction