Oops, an error
Loading. Please wait.

Si Sólo tab

version 2
version 2

Whole song

26 views 1 this week
no commentswrite comment
1 2 3 4 5
3 more votes to show rating
add to favorites
×
Save as Personal and add changes to this tab that will be seen only by you. Learn more ›
×
You can save this tab as Personal to edit and correct it or add notes. All changes will be seen only by you. Learn more »
launch autoscroll
font size
0
reset
how to read this tab
guitar tuner
edit
Autoscroll
slow
fast
+/-
esc
set tempo
stop
Intro  C  D  G  D/F#   (2)

C  D      G  D/F#       C
Será tu luz, será tu mirar,
            D    G
quizás es algo más,
           D/F#      C
que ya no puedo aguantar,
          D        G  D/F#  C  D
pero te quisiera amar.

Será tu voz, será el corazón,
será una voz interior (te amo)
que ya no puedo callar,
pero te quisiera amar.

CORO
Em          C             D
Si solo supieras como estoy yo sin ti, (lo verás),
Em           C         D
si solo pudieras escucharme una vez más,
     C   D       G           D/F#       C
que sí voy a buscar y ya no voy a voltear,
         D           G  D/F#   C              D       Intro
voy a buscar en tu amor, una razón que ya nos una a los dos.


                   (o tus ojos)
Será tu adiós(amor), o tus ojos,
que llevo dentro de mi,
quizás me hablan de ti,
pero te quisiera amar.

CORO

SOLO   (2:21)

  D/F#                C     D   G           D/F#             C
e---------------------------------------------------------------
B-------------------7-8-8--10-12-8--12-12-12-12--10-10-10--8-8--
G---------------7-9-----------------12-12-12-12--11-11-11--9-9--
D---------7-9-10------------------------------------------------
A---7-9-10------------------------------------------------------
E-10------------------------------------------------------------

     D    G          D/F#         C        D           G
e-----------------10--10h12-10-------------------------------
B-8-10-12-8--11/12--12---------12-10-8--8-8-8-8--7-7-7--5-3--
G---------------------------------------9-9-9-9--7-7-7--5-4--
D------------------------------------------------------------

    D/F#                    Em
e-----------------------10-12--
B--------------7-8-10-12-------
G---------7-8-9----------------
D---7-9-10---------------------
A-10---------------------------
E------------------------------

CORO
...que ya nos una a los dos.

            
            
Suggest correction
Creating personal tab
Creating personal tab
You can edit any tab online and save it as your Personal.

You can edit, replace or remove any tab part or add personal notes – all changes will be seen only by you.

Personal tabs can be accessed anytime from any device, even offline.
Learn more »
Give kudos to tab author, rate the tab!
1 2 3 4 5
comments
print report bad tab
guest
Wanna post a correction for this tab? Suggest correction