Oops, an error
Loading. Please wait.

Dentro De Mí tab

version 1
version 1

Whole song

17 views 1 this week
no commentswrite comment
1 2 3 4 5
3 more votes to show rating
add to favorites
×
Save as Personal and add changes to this tab that will be seen only by you. Learn more ›
×
You can save this tab as Personal to edit and correct it or add notes. All changes will be seen only by you. Learn more »
launch autoscroll
font size
0
reset
how to read this tab
guitar tuner
edit
Autoscroll
slow
fast
+/-
esc
set tempo
stop
AkI LeS DeJo EsTe TeMa Q StA ReBuEno
UnO D LoS TeMAs KoN Los KuAlEs EmpeZe
a tokar KoVeRs Kon El ''GrUpO DsKiZiE''
d La ksM!


NOTAS UTILIZADAS:

   A5   C5   E5*  F5*   G5  F5  G5*
e|---------------------------------|
B|---------------------------------|
G|------5----9----10---------------|
D|-7----5----9----10----5---3---12-|
A|-7----3----7----8-----5---3---12-|
E|-5--------------------3---1---10-|
____________________________________

   A5   C5   E5*  F5*   G5
e|-------------------------|
B|-------------------------|
G|------5----9----10-------|
D|-7----5----9----10----5--|  X8
A|-7----3----7----8-----5--|
E|-5--------------------3--|

   F5  -  C5


A5             F5*  G5*
Aspiras influir
A5                       F5*  G5*
con tus ideas para cambiar
A5                     F5*    G5*
konvenseras a otros pero no ami
A5                F5*       G5*
y caeran contigo en la confusion


CORO:

F5               G5
lejos esta! la verdad!
A5
que escondes en la sombra de tu rostro
         F5               G5
la herida que habres no cerrara
A5
estando en ese lado
F5       G5          A5
guardare mis sentimientos (ah ah ah ahhh)
F5       G5  F5       G5
los llevare! los llevareee
F5       G5             A5
los llevare dentro de mi...


A5                  F5*  G5*
No te voy a escuchar
A5                    F5*  G5*
ni tampoko te entendere
A5                    F5*      G5*
seguire en esto! es mi aspiracion!
A5               F5*      G5*
la meta se acerca a mi corazon


CORO:

F5               G5
lejos esta! la verdad!
A5
que escondes en la sombra de tu rostro
         F5               G5
la herida que habres no cerrara
A5
estando en ese lado
F5       G5          A5
guardare mis sentimientos (ah ah ah ahhh)
F5       G5  F5       G5
los llevare! los llevareee
F5       G5             A5
los llevare dentro de mi...

A5 - C5 - F5* - G5*  (X2) PALMUTEADA

A5 - C5 - E5* - F5* - G5  (X4)

  A5         F5    G5    A5            F5      G5
e|-----------------------5~-5-5-5-5-5-8-8-8h7-------
B|------8-------------------------------------8~----
G|-7^~----7-5H7----5-7------------------------------
D|---------------7----------------------------------
A|--------------------------------------------------
E|--------------------------------------------------

   A5
e|-5h0---------------------------------
B|-----0-0-8h0-0-0-6h0-0-0-5h0-8h0-6---
G|-------------------------------------
D|-------------------------------------
A|-------------------------------------
E|-------------------------------------
   F5                          G5         A5    F5              G5
e|--------------------------------------------------------------------|
B|-5h0-0-0-3h0-0-0-1h0-0-0-3h0-0-0-2-0---3---7p8p7p8p7p8p7p8p7p8-10^~-|
G|-------------------------------------3------------------------------|
D|--------------------------------------------------------------------|
A|--------------------------------------------------------------------|
E|--------------------------------------------------------------------|


CORO:

F5               G5
lejos esta! la verdad!
A5
que escondes en la sombra de tu rostro
         F5               G5
la herida que habres no cerrara
A5
estando en ese lado
F5       G5          A5
guardare mis sentimientos (ah ah ah ahhh)
F5       G5  F5       G5
los llevare! los llevareee
F5       G5             A5
los llevare dentro de mi...


X) X) X) X) X) X) X) X) X) X) X) X) X) X) X) X) X) X) X) X) X)
X) X) X) X) X) X) X) X) X) X) X) X) X) X) X) X) X) X) X) X) X)
X) X) X) X) X) X) X) X) X) X) X) X) X) X) X) X) X) X) X) X) X)
X) X) X) X) X) X) X) X) X) X) X) X) X) X) X) X) X) X) X) X) X)
X) X) X) X) X) X) X) X) X) X) X) X) X) X) X) X) X) X) X) X) X)

            
            
Suggest correction
Creating personal tab
Creating personal tab
You can edit any tab online and save it as your Personal.

You can edit, replace or remove any tab part or add personal notes – all changes will be seen only by you.

Personal tabs can be accessed anytime from any device, even offline.
Learn more »
Give kudos to tab author, rate the tab!
1 2 3 4 5
comments
print report bad tab
guest
Wanna post a correction for this tab? Suggest correction