Oops, an error
Loading. Please wait.

La Luna Y Tú bass

version 2
version 2

Whole song

by Ráfaga
52 views 1 this week
no commentswrite comment
1 2 3 4 5
3 more votes to show rating
add to favorites
×
Save as Personal and add changes to this tab that will be seen only by you. Learn more ›
×
You can save this tab as Personal to edit and correct it or add notes. All changes will be seen only by you. Learn more »
launch autoscroll
font size
0
reset
guitar tuner
edit
Autoscroll
slow
fast
+/-
esc
set tempo
stop
bueno aqui les dejo la base de rafaga luna luna
no puse todos los areglos por tiempo
nexos_slash_20@
cualquier consulta


intro:
G----4--4--3--3--2--2--1--1---------
D-----------------------------------
A--2--2--1--1--0--0-----------------
E--------------------4--4-----------

   Bm               Bm
G---------------------------------------------
D-----4------4------4------4-----4------------
A--2------2------2------2-----2------2-2-2--2-
E----2------2------2------2-----2-------------
    Bm       A      A       Bm
G-------------------------------4/6/4----------
D-------------------------------------4--------
A--2-2-2-2-------7-------7--2-5---------5-2----
E------------5-0---5-0-0-----------------------

G------------------------------------------
D-------------------4----------------------
A----4-7---4-7--2-5-----------1------------
E--5-----5--------------2-2-4--------------

verso:
  Bm      Bm
G------------------------------------------------
D-----4-------4------4-------4------4------------
A--2------2--5----2-----2--5----2------2-2-22-2--
E----2--------------2-------------2--------------

  A           A            A        A     A
G----------------------------------------------------
D-7---7-------7-55-7-------7-55-7--------------------
A---7------------------4-7----------4-7----4-7-------
E-------0-3-5--------5------------5------5-----55-66-

  Bm             E      F$        Bm
G---------------------------------------------------
D-----4------------------------------4--------------
A-2-5----22-4-5-------------1-4--2-5----------1--2--
E----------------0-0-1-1--2-------------2-2-4-------

parte media salsiada darle el toke
G------------------------------------------------------
D-------------------7----------------------------------
A-2---2---------------7------4-7----4-7---55-44-2--0-1-
E----2--0-3-5--0-5------5--5------5--------------------

de aki ya se repite casi todo

            
            
Suggest correction
Creating personal tab
Creating personal tab
You can edit any tab online and save it as your Personal.

You can edit, replace or remove any tab part or add personal notes – all changes will be seen only by you.

Personal tabs can be accessed anytime from any device, even offline.
Learn more »
Give kudos to tab author, rate the tab!
1 2 3 4 5
comments
print report bad tab
guest
Wanna post a correction for this tab? Suggest correction