Oops, an error
Loading. Please wait.

Romance Ilegal bass

version 1
version 1

Whole song

by Ráfaga
37 views 1 this week
no commentswrite comment
1 2 3 4 5
3 more votes to show rating
add to favorites
×
Save as Personal and add changes to this tab that will be seen only by you. Learn more ›
×
You can save this tab as Personal to edit and correct it or add notes. All changes will be seen only by you. Learn more »
launch autoscroll
font size
0
reset
guitar tuner
edit
Autoscroll
slow
fast
+/-
esc
set tempo
stop
Versos:

|-------------------------------|-----------------|
|----------------2-2-2-2-2-2-2-2|-----------------|
|-------------------------------|-0-0-0-0-0-0-0-0-|
|-3-3-3-3-3-3-3-3---------------|-----------------|


|-----------------|
|-----------------|
|-5-5-5-5-5-5-5-5-|
|-----------------|


Coro:

|-------------------------------|-----------------|
|----------------2-2-2-2-2-2-2-2|-----------------|
|-------------------------------|-0-0-0-0-0-0-0-0-|
|-3-3-3-3-3-3-3-3---------------|-----------------|


|-----------------|
|-----------------|
|-5-5-5-5-5-5-5-5-|
|-----------------|

   ES ASI DE SIMPLE...SE REPITEN LAS MISMAS NOTAS
  TODA LA CANCION....

------------------------------------------------------


           LETRA:
 
Te propongo que vivamos un romance ilegal
si te gusto y tu me gustas no lo evitemos mas
podemos ser mas que amigos pero sin hablar de amor
te propongo que vivamos nuestro romance ilegal.

CORO:

Pero sin enamorarnos, pero sin enamorarnos
aunque suframos los dos nuestro romance ilegal
pero sin enamorarnos, pero sin enamorarnos
tu me das y yo te doy pero sin hablar de amor.

Sabemos que no podemos quedarnos en libertad
los dos llevamos cadenas no nos podemos amar
pero el fuego que nos quema no podemos apagar
te propongo que vivamos nuestro romance ilegal.


CORO:

Pero sin enamorarnos, pero sin enamorarnos
aunque suframos los dos nuestro romance ilegal
pero sin enamorarnos, pero sin enamorarnos
tu me das y yo te doy pero sin hablar de amor.


         ESTA ES MI INTERPRETACION DE LA CANCION...
      ....OJALA LES SIRVA...
          
              BY VICTOR   ;)

            
            
Suggest correction
Creating personal tab
Creating personal tab
You can edit any tab online and save it as your Personal.

You can edit, replace or remove any tab part or add personal notes – all changes will be seen only by you.

Personal tabs can be accessed anytime from any device, even offline.
Learn more »
Give kudos to tab author, rate the tab!
1 2 3 4 5
comments
print report bad tab
guest
Wanna post a correction for this tab? Suggest correction