Oops, an error
Loading. Please wait.

Campo Minado De Corazones tab

version 3
version 3

Whole song

19 views 1 this week
no commentswrite comment
1 2 3 4 5
3 more votes to show rating
add to favorites
×
Save as Personal and add changes to this tab that will be seen only by you. Learn more ›
×
You can save this tab as Personal to edit and correct it or add notes. All changes will be seen only by you. Learn more »
launch autoscroll
font size
0
reset
how to read this tab
guitar tuner
edit
Autoscroll
slow
fast
+/-
esc
set tempo
stop
CAMPO MINADO DE CORAZONES :

E-1-1---1+3-3-5---+(10)-10-10-13-12-10-10-10-5---5-3-5-8-8-7-5---5-3-1-
B-3---------------------11-11----------------------5-6-8-8-8-----6-5-3-
G-2---2---------5-------10-10------------------5---4-5-7-7-7---5---4-2-

Rpt.

Fuga A :

E-5-5-5-5-5-5-5-5-5-5-5-5-5-5-5-5-5-5-5-5-5-5--
B--3-2-0-5-3-2-0-5-3-2-0-5-3-2-0-5-3-2-0-5-3-2-
G----------------------------------------------

Fuga B :

E-6-6-6-6-6-6-6-6-6-6-6-6-6-6-6-6-6-6-6-6-6-6--
B--3-2-0-5-3-2-0-5-3-2-0-5-3-2-0-5-3-2-0-5-3-2-
G----------------------------------------------

repetir fuga A

Fuga C :

E-3-3-3-3-3-3-3-3-3-3-3-3-3-3-3-3--3-1-0-1-
B--3-2-0-3-2-0-3-2-0-3-2-0-3-2-0---5-3-3-3-
G----------------------------------4-2-2-2-

TOCAR INTRO Y SUMALE ESTA PARTE :

E-1+3--3-3--5+7--7-7---7+10-10-10--10-10--5---5-3-5-8-8-7-5---5-3-1-
B-3+5--5-5--6+8--8-8---8+11-11-11--11-11------6-5-6-8-8-8-----6-5-3-(RPT)
G-2+4--4-4--5+7--7-7---7+10-10-10--10-10----5---4-5-7-7-7---5---4-2-

AHORA TOCAR LAS FUGAS A - B - A y C.

E-1-1+3-3-5--5+10-10-10-13-12-10-12-10-5---5-3-5-8-8-7--5---5-3-
B---3+5-5----6+11-11-11--------------------6-5-6-8-8-8------6-5-
G--2--4-4---5--10-10-10------------------5---4-5-7-7-7----5---4-


E-1---1+3-3--1---1+3-3--1---1+3-3--1---1+3-3----2-
B-----3+5-5------3+5-5------3+5-5------3+5-5----3-  Fin.
G---2---4-4----2---4-4----2---4-4----2---4-4----2-

Espero q les guste,para q les sea mas facil, empezar con Re menor y
despues dezlizarlo al tercer traste y de ahi hacer re mayor en el
quinto traste y deslizar,vean mi video en youtube Campo minado
de corazones John Martin  cancion q empieza en Re menor
y termina en Re Mayor, pasa de una tristeza a una Alegria.
una pareja q se separa y al final se juntan, Grande RAFO RAEZ.
un agradecimiento muy especial a mi Mentor, Mi pata,Mi camarada,
mi brother : ALBERTO RIOS VALERIANO  q me dio las pautas para tocar
esta cancion, Grande Betazo ! y a mis camaradas q me piden siempre
que toque esta cancion. johnnytorque7@

            
            
Suggest correction
Creating personal tab
Creating personal tab
You can edit any tab online and save it as your Personal.

You can edit, replace or remove any tab part or add personal notes – all changes will be seen only by you.

Personal tabs can be accessed anytime from any device, even offline.
Learn more »
Give kudos to tab author, rate the tab!
1 2 3 4 5
comments
print report bad tab
guest
Wanna post a correction for this tab? Suggest correction