Oops, an error
Loading. Please wait.

Dr. Merengue tab

version 2
version 2

Whole song

29 views 1 this week
no commentswrite comment
1 2 3 4 5
3 more votes to show rating
add to favorites
×
Save as Personal and add changes to this tab that will be seen only by you. Learn more ›
×
You can save this tab as Personal to edit and correct it or add notes. All changes will be seen only by you. Learn more »
launch autoscroll
font size
0
reset
how to read this tab
guitar tuner
edit
Autoscroll
slow
fast
+/-
esc
set tempo
stop
#-----------------------------PLEASE NOTE-------------------------------------#
From: = Eduardo Chicchon Ugarte <rhcp80@
Subject: s/Rafo Raez/

Dr. Merengue de Rafo Raez
Album:Suicida de 16 y otras canciones
Transcription by NN80 (rhcp80@


Esta es una buenisima cancion de Rafo Raez, el intro es un con un bajo

INTRO: Con Bajo

-------------------------------------------------------------
-------------------------------------------------------------
-2-4-4-4-2----2-4-4-4-2----2-4-4-4-2-------------------------
-------------------------------------------------------------


Riff 1:Distorsion

e-------------------------------------------------------------
B-------------------------------------------------------------
G--6-6-6-6/4/6-6-6-6/4/-6-6--------------------------------
D--6-6-6-6/4/6-6-6-6/4/-6-6--------------------------------
A--4-4-4-4/2/4-4-4-4/2/-4-4--------------------------------
E-------------------------------------------------------------

En esta parte es solo bateria

Tu me ves conversar
Tu me ves sonreir 
pero yo no soy asi

Riff 2:
e--------------------------------
B---*-4-*-*-*--------------------
G---*-4-*-*-*--------------------
D---*-4-*-*-*--------------------
A---*-2-*-*-*--------------------
E--------------------------------

Solo me ves fingir 
Disimular mi odiar
Tratando de no herir
yaaaaaaa

Riff 2: Distorsion

Solo yo me reprimo
yaaaaaaa

e----------------------------------------
B----------------------------------------
G--6-6-6-6/4/6-6-6-6/4/6-6-6-6-----------
D--6-6-6-6/4/6-6-6-6/4/6-6-6-6-----------
A--4-4-4-4/2/4-4-4-4/2/4-4-4-4-----------
E----------------------------------------


      Solo    yo me deprimo     yaaaaaaaaaaa
e------------------------------------------------------------------
B------------------------------------------------------------------
G----------------4-~-~-~----------6-6-6-6/4/6-6-6-6/4/6-6-6-6------
D---2-~-~-~------4-~-~-~----------6-6-6-6/4/6-6-6-6/4/6-6-6-6------
A---2-~-~-~------2-~-~-~----------4-4-4-4/2/4-4-4-4/2/4-4-4-4------
E------------------------------------------------------------------


  Y que quiero vivir dime que quiero vivir
e------------------------------------------------------------------
B------------------------------------------------------------------
G--6-6-6-6-6-6---4-4-4-4-4-4-4-4-4---6-6-6-------------------------
D--6-6-6-6-6-6---4-4-4-4-4-4-4-4-4---6-6-6-- ----------------------
A--4-4-4-4-4-4---2-2-2-2-2-2-2-2-2---4-4-4-------------------------
E------------------------------------------------------------------


Verso 1:

  Y que quiero sentir dime que quiero sentir te estoy buscando a ti

e------------------------------------------------------------------
B------------------------------------------------------------------
G--6-6-6-6-6-6---4-4-4-4-4-4-4-4-4---2-2-2-2-2---4-4-4-------------
D--6-6-6-6-6-6---4-4-4-4-4-4-4-4-4---2-2-2-2-2---4-4-4-------------
A--4-4-4-4-4-4---2-2-2-2-2-2-2-2-2---------------2-2-2-------------
E------------------------------------------------------------------


Riff 1

Verso 2: la linea de la guitarra es igual que en el verso 1

Riff 1


Al final de la cancion:

  mas mas mas maaaaaaaaaaaaaaaaaaaaas       buena    Dr. Merengue
e-----------------------------------------------------------------------
B-----------------------------------------------------------------------
G--6-6-6-6/4/6-6-6-6/4/6-6-6-6/4/6-6-6-6-----2-~-~----4-~-~-------------
D--6-6-6-6/4/6-6-6-6/4/6-6-6-6/4/6-6-6-6-----2-~-~----4-~-~-------------
A--4-4-4-4/2/4-4-4-4/2/4-4-4-4/2/4-4-4-4--------------2-~-~-------------
E-----------------------------------------------------------------------


          yaaaaaaaaaaaaaaaa                 buena  Dr. Merengue
e------------------------------------------------------------------------
B------------------------------------------------------------------------
G--6-6-6-6/4/6-6-6-6/4/6-6-6-6/4/6-6-6-6-----2-~-~----4-~-~----6-6-6-6-6-
D--6-6-6-6/4/6-6-6-6/4/6-6-6-6/4/6-6-6-6-----2-~-~----4-~-~----6-6-6-6-6-
A--4-4-4-4/2/4-4-4-4/2/4-4-4-4/2/4-4-4-4--------------2-~-~----4-4-4-4-4-
E------------------------------------------------------------------------


Riff 3:

e------------------------------------------------------------------------
B------------------------------------------------------------------------
G--------6----------------------------6----------------------------------
D------6---6-4-4-2-2-1-1-0----------6---6-4-4-2-2-1-0--------------------
A--4-4---------------------2-4--4-4-------------------2-4----------------
E------------------------------------------------------------------------


   Ella me dijo a mi no hables mal de ti    todos   te creeran 
e------------------------------------------------------------------------
B----------5----------3-------5-------3----------------------------------
G------6------------4-------6-------4----------------4-~-~-~-------------
D--------6--------4-------6-------4--------2--2-2----4-~-~-~-------------
A----4----------2-------4-------2----------2-2-2-----2-~-~-~-------------
E------------------------------------------------------------------------


Espero que disfrutes de esta cancionzasa, trate de ser lo mas explicito,
algun pedido de rafo raez tengo las siguientes canciones:
   - la inocencia primaria del diablo
   - celtar 
   - dos canciones pòr el precio de una
   - los regalos del viento
   - suicida de 16
   - cuanto de mi...
   - tronador
   - dios serpiente
   - los viejos verdes
   - el rocker del sermon
   - todo es precario
   - verguenza de existir
   - chica canela
   - vive intensamente
   - los viejos de mierda
 
Tambien tengo tabs de: G-3 ; Narcosis ; leuzemia
  
Cualquier comentario o pedido, o cualquier huevada
escribeme a : rhcp80@

N.N

            
            
Suggest correction
Creating personal tab
Creating personal tab
You can edit any tab online and save it as your Personal.

You can edit, replace or remove any tab part or add personal notes – all changes will be seen only by you.

Personal tabs can be accessed anytime from any device, even offline.
Learn more »
Give kudos to tab author, rate the tab!
1 2 3 4 5
comments
print report bad tab
guest
Wanna post a correction for this tab? Suggest correction