Oops, an error
Loading. Please wait.

Los Viejos De Mierda tab

version 2
version 2

Whole song

14 views 3 this week
no commentswrite comment
1 2 3 4 5
3 more votes to show rating
add to favorites
×
Save as Personal and add changes to this tab that will be seen only by you. Learn more ›
×
You can save this tab as Personal to edit and correct it or add notes. All changes will be seen only by you. Learn more »
launch autoscroll
font size
0
reset
how to read this tab
guitar tuner
edit
Autoscroll
slow
fast
+/-
esc
set tempo
stop
NN80@


Esta es una cancion de mierda, comienza con esta linea de bajo


 INTRO:bajo
 ------------------------------------------------------
 ------------------------------------------------------
 ------------------------------------------------------
 --7-7-7/5-5/3/2/3-3-3-3-1-1-1-1/4-5-5-5-5-4-5-5-------

 -------------------------------------------------------
 -------------------------------------------------------
 ----------------------3-3-3---------1-1-1--1-2-4-2-1---
 --7-7-7/5-5/3/2/3-3-3-------1-1-1-1--------------------


guitarra full distorsion:
E-|-------------------------------------------------|
B-|-------------------------------------------------|
G-|-------------------------------------------------|
D-|--9-9-9/7-7/5/4/5-5-5-5-3-3-3-3/6/7-7-7-7/6/7-7--
A-|--9-9-9/7-7/5/4/5-5-5-5-3-3-3-3/6/7-7-7-7/6/7-7--
E-|--7-7-7/5-5/3/2/3-3-3-3-1-1-1-1/4/5-5-5-5/4/5-5--|

E-|------------------------------------|
B-|------------------------------------|
G-|--------------------5-5-5---3-3-3---|
D-|--9-9-9/7-7/5/4/5-5-5-5-5-3-3-3-3---
A-|--9-9-9/7-7/5/4/5-5-3-3-3-3-1-1-1---|
E-|--7-7-7/5-5/3/2/3-3-------1---------|


Em ----------------------------------------------------|
B-|----------------------------------------------------|
G-|--2-3-5-3-2-3-2--2-3-5-3-2-3-2--2-3-5-3-2(2)(2)(2)--|
D-|----------------------------------------------------
A-|----------------------------------------------------|
E-|----------------------------------------------------|


       I5      A5    G5                F5
    Vendrán, verán lo que quieren ver los 
  
       F5            G#5 A5 G#5 A5
    viejos de mierda, 
  
       I5    A5      G5              F5   
    hablarán lo que quieren ser,  to' lo 
  
       F5      H5     A5
    hablarán, sólo hablarán. 
    
       I5      A5     G5               F5
   ¡Mientras tanto con nosotros que hay! 
   
       F5             G#5 A5 G#5 A5
    hoy viejos de mierda 
   
       I5    A5        G5           F5 
    callan lo que no quieren ver, lo 
   
       F5     H5     A5  
    callarán, to' callarán. 

        I5      A5    G5                F5      G#5 A5 G#5 A5
   ¡Obligaos vamos contra los viejos de mierda! 

         I5    A5      G5              F5   
    Ellos se han venido al poder a medio ser, 

     F5     H5  A5
    o antes de ser. 

       I5      A5    G5                F5        G#5 A5 G#5 A5
    ¡Ellos que debieron liberar los textos de la niebla!, 

       I5    A5      G5              F5  
    se le han avenido al poder, todo feudal, 

      H5  A5
    todo feudal. 
     
       I5      A5    G5                F5  
    Vendrán, dirán 'Que no se hable más' los 

       F5            G#5 A5 G#5 A5
    viejos de mierda, 

      I5    A5      G5              F5     H5     A5
    tergiversar las Agendas es su poder, todo su poder 

       I5      A5    G5                F5        G#5 A5 G#5 A5
    ¡Ocultando el origen de todas!, ¡viejos de mierda!. 

        I5    A5      G5              F5  
    Desde ustedes no habrá historiar, ni preguntar, 
     
    H5    A5
    ni contestar. 


 Power Chords
  F5        F#5 G5  G#5 A5       A#5 B5  C5  C#5 D5       D#5  H5  I5
|---------------------------------------------------------------------------|
|-----------------------------------------------------3---------------------|
|------10--------------------2---3---4---5---6---7----2---8-----------------|
|-3----10---4---5---6---7----2---3---4---5---6---7-or-0---8----8----9-------|
|-3-or--8---4---5---6---7-or-0---1---2---3---4---5--------6----8----9-------|
|-1---------2---3---4---5--------------------------------------6----7-------|


 Comentarios o maleteos ,si sabes tocar el bajo o la bateria,escribeme: rhcp80@

            
            
Suggest correction
Creating personal tab
Creating personal tab
You can edit any tab online and save it as your Personal.

You can edit, replace or remove any tab part or add personal notes – all changes will be seen only by you.

Personal tabs can be accessed anytime from any device, even offline.
Learn more »
Give kudos to tab author, rate the tab!
1 2 3 4 5
comments
print report bad tab
guest
Wanna post a correction for this tab? Suggest correction