Oops, an error
Loading. Please wait.

Alguien Menos Tú tab

version 3
version 3

Whole song

by Ragazzi
28 views 1 this week
no commentswrite comment
1 2 3 4 5
3 more votes to show rating
add to favorites
×
Save as Personal and add changes to this tab that will be seen only by you. Learn more ›
×
You can save this tab as Personal to edit and correct it or add notes. All changes will be seen only by you. Learn more »
launch autoscroll
font size
0
reset
how to read this tab
guitar tuner
edit
Autoscroll
slow
fast
+/-
esc
set tempo
stop
wenas aqui les mando esta rola que la vdd esta muy chida
suena tal y como esta en el disco nada mas que escuchenla
primero para que lleven el ritmo bueno espero que les sea
de su agrado cualquier cosa hay les va mi correo sofen_option@
   A                          C#m            D                            E
e|-------------------------4-5-0-----------------------------------------------------0-----0-----0-
B|-3/5-5-5--5-5--5---5-5-7-------5-5--5-5--5--5-3/5-5-5/3--3-3/2--2*0------0-----------3-----3-3---
G|---------------------------------------------------------------------2------1/2-2------2---------
D|-------------------------------------------------------------------------------------------------
A|-------------------------------------------------------------------------------------------------
E|-------------------------------------------------------------------------------------------------

   A                          C#m            D                            Dm6/9
e|-------------------------4-5-0----------------------------------------------0---------0----------
B|-3/5-5-5--5-5--5---5-5-7------5-5--5-5--5--5-3/5-5-5/3--3-3/2--2*0-------0--3------3-----3-------
G|---------------------------------------------------------------------2------2----2---------------
D|----------------------------------------------------------------------------3--3-----------------
A|-------------------------------------------------------------------------------------------------
E|-------------------------------------------------------------------------------------------------


INTRO: A-C#m-D-E-A-C#m-D-Dm6/9


A                      C#m
e|----------------------------------------
B|----------------------------------------
G|-----------------------------1-2-2/3----
D|----------------------------------------
A|----------------------------------------
E|----------------------------------------
Dime, que diablos te pasó,
        F#m                  E
Porque cambias como un camaleón,
         Bm                     D
Hoy me quieres, mañana tienes dudas,
         E
Eso me duele.
     A                      C#m
e|----------------------------------------
B|--------------------------------2-------
G|--------------------------------2-2-2/4-
D|----------------------------------------
A|----------------------------------------
E|----------------------------------------
Si piensas que soy un masoquista,
      F#m                        E
Me revienta que jueguen con mi vida,
    Bm                     D
Te amo, no hay duda que te amo,
          E       D-E
Pero también... busco
 A                     C#m
Alguien, que sepa definir lo que siente,
     D                    E
Que no se disfrace de verdad cuando miente,
A                            C#m
Alguien que entienda y se conecte a mi mundo,
     D                       E
Que no me critique y que comparta mis gustos...

Dm6/9
e|-0------0-----------0-------------------
B|---3-------3-----3----------------------
G|-----2--------2-------------------------
D|----------------------------------------
A|----------------------------------------
E|----------------------------------------
   Alguien, alguien,

Dm
e|-0-------0------------------------------
B|---3--------3-----3---------------------
G|-----2---------2------------------------
D|----------------------------------------
A|----------------------------------------
E|----------------------------------------
   Alguien, alguien,
           A  E
Menos tú...

Dm6/9
e|-0------0-----------0-------------------
B|---3-------3-----3----------------------
G|-----2--------2-------------------------
D|----------------------------------------
A|----------------------------------------
E|----------------------------------------
   Alguien, alguien,

Dm
e|-0-------0------------------------------
B|---3--------3-----3---------------------
G|-----2---------2------------------------
D|----------------------------------------
A|----------------------------------------
E|----------------------------------------
   Alguien, alguien,

           A     E
Menos tú...

   A                          C#m            D                            Dm6/9
e|-------------------------4-5-0---------------------------------------------------0-------0-------
B|-3/5-5-5--5-5--5---5-5-7-------5-5--5-5--5--5-3/5-5-5/3--3-3/2--2*0------0----------3-------3----
G|---------------------------------------------------------------------2------1/2--------2---------
D|-------------------------------------------------------------------------------------------------
A|-------------------------------------------------------------------------------------------------
E|-------------------------------------------------------------------------------------------------

     A                      C#m
Si piensas que soy un masoquista,
      F#m                        E
Me revienta que jueguen con mi vida,
    Bm                     D
Te amo, no hay duda que te amo,
          E       D-E
Pero también... busco
 A                     C#m
Alguien, que sepa definir lo que siente,
     D                    E
Que no se disfrace de verdad cuando miente,
A                            C#m
Alguien que entienda y se conecte a mi mundo,
     D                       E
Que no me critique y que comparta mis gustos...

Dm6/9
e|-0------0-----------0-------------------
B|---3-------3-----3----------------------
G|-----2--------2-------------------------
D|----------------------------------------
A|----------------------------------------
E|----------------------------------------
   Alguien, alguien,

Dm
e|-0-------0------------------------------
B|---3--------3-----3---------------------
G|-----2---------2------------------------
D|----------------------------------------
A|----------------------------------------
E|----------------------------------------
   Alguien, alguien,

       A  E
Menos tú...

Dm6/9
e|-0------0-----------0-------------------
B|---3-------3-----3----------------------
G|-----2--------2-------------------------
D|----------------------------------------
A|----------------------------------------
E|----------------------------------------
   Alguien, alguien,

Dm
e|-0-------0------------------------------
B|---3--------3-----3---------------------
G|-----2---------2------------------------
D|----------------------------------------
A|----------------------------------------
E|----------------------------------------
   Alguien, alguien,

        A    E
Menos tú...

Dm6/9
e|-0------0-----------0-------------------
B|---3-------3-----3----------------------
G|-----2--------2-------------------------
D|----------------------------------------
A|----------------------------------------
E|----------------------------------------
   Alguien, alguien,

Dm
e|-0-------0------------------------------
B|---3--------3-----3---------------------
G|-----2---------2------------------------
D|----------------------------------------
A|----------------------------------------
E|----------------------------------------
   Alguien, alguien,

            A      E
e|----------------------------------------
B|---------2/3----------------------------
G|----------------------------------------
Menos tú...

            A
e|----------------------------------------
B|---------2/3----------------------------
G|----------------------------------------
Menos tú...

A
e|----------------------------------------
B|----------------2/3----5+---------------
G|----------------------------------------
Alguién menos tú...


   A                          C#m            D                            Dm6/9
e|-------------------------4-5-0-----------------------------------------------------0-----0-----0-
B|-3/5-5-5--5-5--5---5-5-7-------5-5--5-5--5--5-3/5-5-5/3--3-3/2--2*0------0-----------3-----3-3---
G|---------------------------------------------------------------------2------1/2-2------2---------
D|-------------------------------------------------------------------------------------------------
A|-------------------------------------------------------------------------------------------------
E|-------------------------------------------------------------------------------------------------

   A                          C#m            D                            Dm6/9
e|-------------------------4-5-0-----------------------------------------------0-------0-----------
B|-3/5-5-5--5-5--5---5-5-7-------5-5--5-5--5--5-3/5-5-5/3--3-3/2--2*0-------0--3-----3---3---------
G|----------------------------------------------------------------------2------2---2---------------
D|-----------------------------------------------------------------------------3-3-----------------
A|-------------------------------------------------------------------------------------------------
E|-------------------------------------------------------------------------------------------------

Acordes:

A     - 002220
C#m   - x46654
D     - xx0232
E     - 022100
Dm6/9 - xx3230
Bm    - 224432
Dm    - xx0231

            
            
Suggest correction
Creating personal tab
Creating personal tab
You can edit any tab online and save it as your Personal.

You can edit, replace or remove any tab part or add personal notes – all changes will be seen only by you.

Personal tabs can be accessed anytime from any device, even offline.
Learn more »
Give kudos to tab author, rate the tab!
1 2 3 4 5
comments
print report bad tab
guest
Wanna post a correction for this tab? Suggest correction