Oops, an error
Loading. Please wait.

Dedicatoria A La Mamá De Ken-Y tab

50 views 1 this week
no commentswrite comment
1 2 3 4 5
3 more votes to show rating
add to favorites
×
Save as Personal and add changes to this tab that will be seen only by you. Learn more ›
×
You can save this tab as Personal to edit and correct it or add notes. All changes will be seen only by you. Learn more »
launch autoscroll
font size
0
reset
how to read this tab
guitar tuner
edit
Autoscroll
slow
fast
+/-
esc
set tempo
stop
Modificación a la transcripción de Samuel González

Esta es mi primera transcripción de Rakin y Ken-y
espero que les gusta esta canción se la dedico a mi
madre y a una persona muy especial para mi que se llama
 Daniela que la amo muuuuchoooo y como dice la canción
No encontré palabras esta vez para
poder decir que significas para mi.
Tu palabra es aliento de tu amor me alimento, tu voz
es mi guía nunca te olvidaría.
Para esta canción tienen que usar capo en el primer traste
Esta es la intro recuerden el capo

e----1-----------1-------1
B?5-----1---5?-5----1?-5-1
G------2-2----0----2-2---2
D----0-----------0-------0
A?3---------3----------3--
E-------------------------

Aquí comienza la canción

e?0---------1---------0-----1--------1-----
B?1---------1-----2---1-----1----2---1-----
G?0---0-----2----2-2?-0-0---2?-2?-2?-0-----
D-----------0---------------0--------------
A?3-------------------3--------------------
E------------------------------------1-----
  No encontré palabras esta vez para poder
e?----0-----0------1-----1----
B?----1---1---1----1---------2
G?0------0?-0?0?---2-----2?-2-
D------------------0---0------
A?----3-----------------------
E-----------------------------
decir que significas para mi

e-----------1---------0-----1---------1--------------
B?5---------1-----2---1-----1----2----1----------1---
G?----0-----2----2-2?-0-0---2?-2?-2?--0--------0-----
D-----------0---------------0------------------------
A?3-------------------3------------------------------
E-------------------------------------1--------------
  Tu oración me acompaña donde voy por ti soy lo que soy

e----------------------
B-------0------------0-
G-----0------------0---
D--0-----------0-------
A----------------------
E-1--------3-----------
  Bendita Madre aquí estoy

e--------------------------1-----------------
B-------1----------1-----1---1--------1-----
G-----2---2------2-----2------2-----2-----2-
D---2-------2?-3-----0------------3-----0---
A-0-----------------------------------------
E------------1------------------1-----------

Tu palabra es aliento de tu amor me alimento


e------------1------------1-----1--
B----------2-----2------1---1-----2
G--------2------------2-------2----
D-----3------------0---------------
A----------------------------------
E-1--------------------------------
 Tu luz es mi guía nunca te olvidaría

e------------0-----------------------------------------------1-
B----------1----1-----------------------1--------1---------1---
G--------0----------0---0-------------2------2-----------2-----
D------2--------------2------------3-----------3-------0-------
A--3-----------------------------------------------------------
E----------------------------1---------------------------------
        Pero como olvidar si me enseñaste a volar si hoy por....

e--------3------3-
B----------0------
G-----0-------0---
D---0-------------
A-----------------
E-3---------------
 Camino sin tropezar

e----------------------
B-------0------------0-
G-----0------------0---
D--0-----------0-------
A----------------------
E-1--------3-----------

e-------------0----1-------0---1----------------------
B---0-------1-1----1---2---1---1----2-----------0------
G---0-----2---0?0?-2-2---2-0-0-2?-2---2-------0-------0
D-------2----------0-----------0-----------0---------0-
A-----0-------3------------3---------------------------
E-1--------------------------------------1---------3--
 Pero como olvidar si en tus brazos soné y en la cuna


Ya lo que sigue es igual la estrofa, el precoro y el coro


estrofa 2

Si el dolor perturba mi corazón tu abrazo es la razón
mi premio es tu canción.
  cuando ya no estemos más aqui si he de volver a vivir
quiero nacer de ti.

PRECORO

  Tu palabra es aliento de tu amor me alimento, tu voz
 es mi guía nunca te olvidaría.
CORO:

 Pero como olvidar si me enseñaste a volar, si hoy por
ti puedo andar camino sin tropezar, pero como olvidar
 si en tus brazos soñé y en la cuna de tus manos
  me despeté

alguna consulta o pregunta puden entrar a panKen-Y@

te quiero DANIELA ARAUZ

            
            
Suggest correction
Creating personal tab
Creating personal tab
You can edit any tab online and save it as your Personal.

You can edit, replace or remove any tab part or add personal notes – all changes will be seen only by you.

Personal tabs can be accessed anytime from any device, even offline.
Learn more »
Give kudos to tab author, rate the tab!
1 2 3 4 5
comments
print report bad tab
guest
Wanna post a correction for this tab? Suggest correction