Oops, an error
Loading. Please wait.

Mi Corazón Está Muerto tab

55 views 1 this week
no commentswrite comment
1 2 3 4 5
3 more votes to show rating
add to favorites
×
Save as Personal and add changes to this tab that will be seen only by you. Learn more ›
×
You can save this tab as Personal to edit and correct it or add notes. All changes will be seen only by you. Learn more »
launch autoscroll
font size
0
reset
how to read this tab
guitar tuner
edit
Autoscroll
slow
fast
+/-
esc
set tempo
stop
EN REALIDAD ES UN PUNTEO DE LA VOZ (NO HALLÉ DÓNDE MÁS COLOCARLO)
¡ESPERO QUE SEA DE SU AGRADO!

 Bm                     F#m
A?aay, mi corazón esta muerto?
e|-------------------------|
b|-0--2-3,-3-3-3-3-3-3-3-2-|
g|-----------------------2-|

Bm                     F#m
A?aay mi corazón esta muerto.
e|---------------2-----0---|
b|-0--2-3,-3-3-3---3-3---2-|
g|-----------------------2-|


Bm                               F#m
Ella fue enredándome en su telaraña
e|-2-0---0-2-0-------------|
b|-----3-------3-3-3-3-3-2-|
g|-------------------------|

Me hizo creer en su amor,
e|-----------------|
b|---2-2-2-2-0---0-|
g|-------------2---|
d|-4---------------|

Bm                               F#m
Muchos me advirtieron que apariencias engañan
e|-2-0---0-2-0-------------|
b|-----3-------3-3-3-3-3-2-|
g|-------------------------|

Que iba a causarme dolor
e|-----------------|
b|---2-2-2-2-0---0-|
g|-------------2---|
d|-4---------------|


Bm
Y yo la seguía, sí yo la seguía
e|-------------------------|
b|-----3-3-3-3,-----3-3-3-3|
g|---4------------4--------|
d|-4------------4----------|


     F#m
Como loco la perseguía
e|------------------|
b|---3-2-2-2-2-0----|
g|---------------2-2|
d|-4----------------|

Que me amaba ella me decía
e|------------------|
b|---3-2-2-2-2-0----|
g|---------------2-2|
d|-4----------------|


       Bm
Descubrí que todo era mentira
e|----------------|
b|---0-0-0-0-3-3-3|
g|--2-------------|
d|-4--------------|

Y de mi ella se reía
e|----------------|
b|---0-0-0-0-3-3-3|
g|--2-------------|
d|-4--------------|

      F#m
Yo maldigo la hora y el día
e|------------------|
b|---3-2-2-2-2-0----|
g|---------------2-2|
d|-4----------------|


Que se llevo la vida mía.
e|------------------|
b|---3-2-2-2-2-0----|
g|---------------2-2|
d|-4----------------|


ESTRIBILLO (2 VECES):

  Bm                    F#m
A?aay, mi corazón esta muerto,
e|-------------------------|
b|-0--2-3,-3-3-3-3-3-3-3-2-|
g|-----------------------2-|

Se muere de pena y dolor
e|-----------------|
b|---2-2-2-2-0---0-|
g|-------------2---|
d|-4---------------|

   Bm                   F#m
A?aay, mi corazón esta muerto
e|---------------2-----0---|
b|-0--2-3,-3-3-3---3-3---2-|
g|-----------------------2-|

La amé y me pago con traición.
e|-----------------|
b|---2-2-2-2-0---0-|
g|-------------2---|
d|-4---------------|


Rakim (2 Veces):
     Bm
Abusadora, rompiste mi corazón
e|----------------------------|
b|-----2-s-3------3-3-3-3-2-0-|
g|---2-------4,---------------|
d|-4------------4-------------|

        F#m
Y tú decías que me amabas
e|-------------------|
b|-0-3-2-2-2-2-0-----|
g|---------------2-2-|
d|-------------------|

Fui victima de una traición
e|-----------------|
b|---3-2-2-2-2-0---|
g|---------------2-|
d|-4---------------|
    Bm
Seductora, caí en la tentación
e|----------------------------|
b|-----2-s-3------3-3-3-3-2-0-|
g|-2-2-------4,-4-------------|
d|----------------------------|
    F#m
Engañado por tus caricias
e|-------------------|
b|-0-3-2-2-2-2-0-----|
g|---------------2-2-|
d|-------------------|
Me envolviste en tu corazón
e|-----------------|
b|---3-2-2-2-2-0---|
g|---------------2-|
d|-4---------------|


**ESTRIBILLO**

Siento la traición, sí, me mataste
Ahora vete con él, me alborotaste,
Mi corazón lo deterioraste, para ti muy fácil ver a los hombres.
Mala, bruja eres, traicionera
Quisiera olvidarte de mil maneras
Nunca imaginé que esto me sucediera
Que una asesina del amor existiera.

**ESTRIBILLO**

            
            
Suggest correction
Creating personal tab
Creating personal tab
You can edit any tab online and save it as your Personal.

You can edit, replace or remove any tab part or add personal notes – all changes will be seen only by you.

Personal tabs can be accessed anytime from any device, even offline.
Learn more »
Give kudos to tab author, rate the tab!
1 2 3 4 5
comments
print report bad tab
guest
Wanna post a correction for this tab? Suggest correction