Oops, an error
Loading. Please wait.

La Pulpera De Santa Lucía tab

145 views 3 this week
no commentswrite comment
1 2 3 4 5
3 more votes to show rating
add to favorites
×
Save as Personal and add changes to this tab that will be seen only by you. Learn more ›
×
You can save this tab as Personal to edit and correct it or add notes. All changes will be seen only by you. Learn more »
launch autoscroll
font size
0
reset
how to read this tab
guitar tuner
edit
Autoscroll
slow
fast
+/-
esc
set tempo
stop
La pulpera de Santa Lucía

Solo de guitarra:

         F#m/5-                      Gm
|-------------------------------------------------------
|--------------7-10-7-----------------------------------
|-7-7-6--7-6-7--------7-8-7-5---------------5-7--6------
|-----------------------------8-7-5-4-5-7-8-------------
|-------------------------------------------------------
|-------------------------------------------------------

      C               F                F-G7-Am
|--------------------------------------------------------
|-------5-8-5--------------------------------------------
|-5-4-5-------5-7-5--------------------5-4-5-------------
|-------------------8-7-5-------5-7-8--------------------
|-------------------------8-7-8--------------------------
|--------------------------------------------------------

    Am              Dm
|--------------------------------------------------------
|---5----------------------------------------------------
|-6---6--------------------------------------------------
|-------8-7-6-7-5---------------------5-7----------------
|-----------------8-7-8-7--5-4-5-7-8---------------------
|--------------------------------------------------------

      Gm     A7                               Dm
|--------------------------------------------------------|
|---------------------------------------10---------------|
|---2-5-3-------7-6-----6/9--7p9p7-6-7-----10------------|
|-3---------5-8-------------------------------7----------|
|--------------------------------------------------------|
|--------------------------------------------------------|

Dm                       Gm                           F1
Era rubia y sus ojos celestes ] F1            |--------------|
                                              |-----------6--|
A7                       Dm                   |-----4-5-7----|
reflejaban la gloria del día                  |-5-7----------|
            A#7       A7                      |--------------|
y cantaba como una calandria                  |--------------|
G7             A7     Dm + F2
la pulpera de Santa Lucía.                             F2
                                              |-----------------|
Dm                        Gm                  |-----------------|
Era flor de la vieja parroquia.               |-----------------|
 A7                             Dm            |-----------------|
¿Quién fue el gaucho que no la quería?        |-5-3-------------|
C                           F                 |-----6-5-3--1-0--|
Los soldados de cuatro cuarteles
F   G7  A7            Dm
suspiraban en la pulpería.

F#m7/5-                   Gm
Le cantó el payador mazorquero
F#m7/5-                   Gm
con un dulce gemir de vihuelas
 C                        F
en la reja que olía a jazmines,
F   G7    A7               Dm
en el patio que olía a diamelas.

F#m7/5-                    Gm
"Con el alma te quiero, pulpera,
F#m7/5-                    Gm
y algún día tendrás que ser mía,
   A7                         Dm
mientras llenan las noches del barrio
  A#7  A7                Dm
las guitarras de Santa Lucía".


                          SOLO DE GUITARRA


Dm                       Gm
La llevó un payador de Lavalle
A7                       Dm
cuando el año cuarenta moría;
            A#7       A7
ya no alumbran sus ojos celestes
G7             A7     Dm + F2
la parroquia de Santa Lucía.


Dm                        Gm
No volvieron los trompas de Rosas
A7                      Dm
a cantarle vidalas y cielos.
C                     F
En la reja de la pulpería
F   G7  A7            Dm
los jazmines lloraban de celos.


F#m7/5-                   Gm
Y volvió el payador mazorquero
F#m7/5-                Gm
a cantar en el patio vacío
C                        F
la doliente y postrer serenata
F   G7    A7               Dm
que llevábase el viento del río:

F#m7/5-                    Gm
¿Dónde estás con tus ojos celestes,
F#m7/5-                   Gm
oh pulpera que no fuiste mía?"
A7                         Dm
¡Cómo lloran por ti las guitarras,
A#7  A7                Dm
las guitarras de Santa Lucía!


F#m7/5-
|---2---
|---1---
|---2---
|-------
|-------
|---2---

Nota:
Este vals criollo se suele tocar a 3 guitarras como mínimo.
En ese caso, dos guitarras puntean; trasladar el solo a su
octava superior. El solo se puede utilizar también como intro.
Espero que les sirva y guste,cualquier consulta o pedido escribir
a: SQUIELS_91@

Transcripción: Ezequiel Suarez Spikermann

            
            
Suggest correction
Creating personal tab
Creating personal tab
You can edit any tab online and save it as your Personal.

You can edit, replace or remove any tab part or add personal notes – all changes will be seen only by you.

Personal tabs can be accessed anytime from any device, even offline.
Learn more »
Give kudos to tab author, rate the tab!
1 2 3 4 5
comments
print report bad tab
guest
Wanna post a correction for this tab? Suggest correction