Oops, an error
Loading. Please wait.

Sombras Y Sueños tab

10 views 1 this week
no commentswrite comment
1 2 3 4 5
3 more votes to show rating
add to favorites
×
Save as Personal and add changes to this tab that will be seen only by you. Learn more ›
×
You can save this tab as Personal to edit and correct it or add notes. All changes will be seen only by you. Learn more »
launch autoscroll
font size
0
reset
how to read this tab
guitar tuner
edit
Autoscroll
slow
fast
+/-
esc
set tempo
stop
Intro
   Palm Muted
D *--------------------------------------------*
A *----------------------0-0-0-2-3-0---0-2-3---*x4
E *--0-0-2-3-0---0-2-3-------------------------*

     Em                      G
e *-----------------7h10-7---------10-----------------------
B *----------7-8-10----------10b12----10b12---10p8-10-8--8--
G *--------9------------------------------------------------
D *------9--------------------------------------------------
A *----7----------------------------------------------------
E *--0------------------------------------------------------

   Am                               D
e ----------------------------------------------------------------------
B -12b13--12b13--10----10-8s10--10----7h8-10-7--10b12-8-10-8h10p8-10-8--
G ------------------12--------------------------------------------------
D ----------------------------------------------------------------------

   Em                    G                     Am                  D
e ----------------------------------------------------------------------
B ----------------------------------------------------------------------
G -7s9--9-7---7s9----7s9--------------12---------------------------5s7--
D ----------9------------12-9---------12-------4s5--7-7--5-7---5-7------
A ----------------------------12-10---10--------------------------------
E ----------------------------------------------------------------------


e -------------------------7------*
B --8---8-10-10b12-10-8-10--------*
G ----9-----------------------9---*
D --------------------------------*


Em                              G
No quiero sueños que me hagan creer
                             Am
Que todo lo bueno se puede coger
                              D
Se puede comprar, se puede vender
Em                             G
No busco mujeres que digan que si
                               Am
Que bailen la danza de la falsedad
                                 D            Em
Y quemen la noche esperando encontrar un amanecer
                      G
Dónde esconder su soledad
                         Am
Dónde ocultar una vida vacía
                    D
Una fantasía para pasar al otro día
Em                        G
No quiero amigos para mentir
                              Am
Ni jugar el partido de la vanidad
                                 D
Que siempre pierden los que no están


A                   G
  Sombras y sueños,   sueños y sombras de sombras
A                      G
  La canción del reloj   contando los pasos del niño perdido
A                   G
  Sombras y sueños,   sueños y sombras de sombras
A                    G                            Em
  La piel del espejo   cansado quebrado y vencido

   Palm Muted
D *--------------------------------------------*
A *----------------------0-0-0-2-3-0---0-2-3---*x2
E *--0-0-2-3-0---0-2-3-------------------------*


Em                                 G
Busco el retrato de un alma en el tiempo
                           Am
Una suave luna entre las nubes
                       D
Una pequeña estrella fugaz
Em                                G
El tesoro en el barco del viejo pirata
                                   Am
La llave de Alicia en el fondo del mar
                                   D
El libro que enseña en secreto a vivir eternamente
Em                            G
Un camino que lleve a la libertad
                              Am
El poema del loco con cara de gato
                                      D
Que cuenta la historia de un hombre feliz con su pasado
Em                               G
Enterrar el dolor en un pozo infinito
                                Am
Un rayo de sol a través del cristal
                            D
Unos labios mojados al amanecer


A                   G
  Sombras y sueños,   sueños y sombras de sombras
A                      G
  La canción del reloj   contando los pasos del niño perdido
A                   G
  Sombras y sueños,   sueños y sombras de sombras
A                    G
  La piel del espejo   cansado quebrado y vencido

A                   G
  Sombras y sueños,   sueños y sombras de sombras
A                      G
  La canción del reloj   contando los pasos del niño perdido
A                   G
  Sombras y sueños,   sueños y sombras de sombras
A                    G                            Em
  La piel del espejo   cansado quebrado y vencido


  Palm Muted
D *----------2------*
A *----------2------*
E *--0-0-2-3-0------*


Cualquier duda, comentario o petición háganla al mail: hectorprs@
Suggest correction
Creating personal tab
Creating personal tab
You can edit any tab online and save it as your Personal.

You can edit, replace or remove any tab part or add personal notes – all changes will be seen only by you.

Personal tabs can be accessed anytime from any device, even offline.
Learn more »
Give kudos to tab author, rate the tab!
1 2 3 4 5
comments
print report bad tab
guest
Wanna post a correction for this tab? Suggest correction